  0
SECTION
  2
HEADER
  9
$ACADVER
  1
AC1015
  9
$ACADMAINTVER
 70
     6
  9
$DWGCODEPAGE
  3
ANSI_1252
  9
$INSBASE
 10
0.0
 20
0.0
 30
0.0
  9
$EXTMIN
 10
-1556.8809256041
 20
-580.156048988
 30
0.0
  9
$EXTMAX
 10
-444.9828777933
 20
221.414820902
 30
0.0
  9
$LIMMIN
 10
0.0
 20
0.0
  9
$LIMMAX
 10
420.0
 20
297.0
  9
$ORTHOMODE
 70
     0
  9
$REGENMODE
 70
     1
  9
$FILLMODE
 70
     1
  9
$QTEXTMODE
 70
     0
  9
$MIRRTEXT
 70
     1
  9
$LTSCALE
 40
1.0
  9
$ATTMODE
 70
     1
  9
$TEXTSIZE
 40
3.175
  9
$TRACEWID
 40
1.0
  9
$TEXTSTYLE
  7
Standard
  9
$CLAYER
  8
0
  9
$CELTYPE
  6
ByLayer
  9
$CECOLOR
 62
   256
  9
$CELTSCALE
 40
1.0
  9
$DISPSILH
 70
     0
  9
$DIMSCALE
 40
1.0
  9
$DIMASZ
 40
3.302
  9
$DIMEXO
 40
0.0
  9
$DIMDLI
 40
3.75
  9
$DIMRND
 40
0.0
  9
$DIMDLE
 40
0.0
  9
$DIMEXE
 40
3.175
  9
$DIMTP
 40
0.0
  9
$DIMTM
 40
0.0
  9
$DIMTXT
 40
3.175
  9
$DIMCEN
 40
2.5
  9
$DIMTSZ
 40
0.0
  9
$DIMTOL
 70
     0
  9
$DIMLIM
 70
     0
  9
$DIMTIH
 70
     1
  9
$DIMTOH
 70
     1
  9
$DIMSE1
 70
     0
  9
$DIMSE2
 70
     0
  9
$DIMTAD
 70
     0
  9
$DIMZIN
 70
     1
  9
$DIMBLK
  1

  9
$DIMASO
 70
     1
  9
$DIMSHO
 70
     1
  9
$DIMPOST
  1

  9
$DIMAPOST
  1

  9
$DIMALT
 70
     0
  9
$DIMALTD
 70
     3
  9
$DIMALTF
 40
0.0393700787
  9
$DIMLFAC
 40
1.0
  9
$DIMTOFL
 70
     1
  9
$DIMTVP
 40
0.0
  9
$DIMTIX
 70
     0
  9
$DIMSOXD
 70
     0
  9
$DIMSAH
 70
     0
  9
$DIMBLK1
  1

  9
$DIMBLK2
  1

  9
$DIMSTYLE
  2
ISO-25
  9
$DIMCLRD
 70
     0
  9
$DIMCLRE
 70
     0
  9
$DIMCLRT
 70
     0
  9
$DIMTFAC
 40
1.0
  9
$DIMGAP
 40
1.524
  9
$DIMJUST
 70
     0
  9
$DIMSD1
 70
     0
  9
$DIMSD2
 70
     0
  9
$DIMTOLJ
 70
     0
  9
$DIMTZIN
 70
     1
  9
$DIMALTZ
 70
     0
  9
$DIMALTTZ
 70
     0
  9
$DIMUPT
 70
     0
  9
$DIMDEC
 70
     2
  9
$DIMTDEC
 70
     2
  9
$DIMALTU
 70
     2
  9
$DIMALTTD
 70
     3
  9
$DIMTXSTY
  7
Standard
  9
$DIMAUNIT
 70
     0
  9
$DIMADEC
 70
     2
  9
$DIMALTRND
 40
0.0
  9
$DIMAZIN
 70
     0
  9
$DIMDSEP
 70
    44
  9
$DIMATFIT
 70
     3
  9
$DIMFRAC
 70
     0
  9
$DIMLDRBLK
  1

  9
$DIMLUNIT
 70
     2
  9
$DIMLWD
 70
    -2
  9
$DIMLWE
 70
    -2
  9
$DIMTMOVE
 70
     0
  9
$LUNITS
 70
     2
  9
$LUPREC
 70
     2
  9
$SKETCHINC
 40
1.0
  9
$FILLETRAD
 40
0.0
  9
$AUNITS
 70
     0
  9
$AUPREC
 70
     2
  9
$MENU
  1
.
  9
$ELEVATION
 40
0.0
  9
$PELEVATION
 40
0.0
  9
$THICKNESS
 40
0.0
  9
$LIMCHECK
 70
     0
  9
$CHAMFERA
 40
0.0
  9
$CHAMFERB
 40
0.0
  9
$CHAMFERC
 40
0.0
  9
$CHAMFERD
 40
0.0
  9
$SKPOLY
 70
     0
  9
$TDCREATE
 40
2460963.472120046
  9
$TDUCREATE
 40
2460963.68045338
  9
$TDUPDATE
 40
2460963.472146354
  9
$TDUUPDATE
 40
2460963.680479688
  9
$TDINDWG
 40
0.0000000116
  9
$TDUSRTIMER
 40
0.0000000116
  9
$USRTIMER
 70
     1
  9
$ANGBASE
 50
0.0
  9
$ANGDIR
 70
     0
  9
$PDMODE
 70
     0
  9
$PDSIZE
 40
-1.0
  9
$PLINEWID
 40
0.0
  9
$SPLFRAME
 70
     0
  9
$SPLINETYPE
 70
     6
  9
$SPLINESEGS
 70
     8
  9
$HANDSEED
  5
121
  9
$SURFTAB1
 70
     6
  9
$SURFTAB2
 70
     6
  9
$SURFTYPE
 70
     6
  9
$SURFU
 70
     6
  9
$SURFV
 70
     6
  9
$UCSBASE
  2

  9
$UCSNAME
  2

  9
$UCSORG
 10
0.0
 20
0.0
 30
0.0
  9
$UCSXDIR
 10
1.0
 20
0.0
 30
0.0
  9
$UCSYDIR
 10
0.0
 20
1.0
 30
0.0
  9
$UCSORTHOREF
  2

  9
$UCSORTHOVIEW
 70
     0
  9
$UCSORGTOP
 10
0.0
 20
0.0
 30
0.0
  9
$UCSORGBOTTOM
 10
0.0
 20
0.0
 30
0.0
  9
$UCSORGLEFT
 10
0.0
 20
0.0
 30
0.0
  9
$UCSORGRIGHT
 10
0.0
 20
0.0
 30
0.0
  9
$UCSORGFRONT
 10
0.0
 20
0.0
 30
0.0
  9
$UCSORGBACK
 10
0.0
 20
0.0
 30
0.0
  9
$PUCSBASE
  2

  9
$PUCSNAME
  2

  9
$PUCSORG
 10
0.0
 20
0.0
 30
0.0
  9
$PUCSXDIR
 10
1.0
 20
0.0
 30
0.0
  9
$PUCSYDIR
 10
0.0
 20
1.0
 30
0.0
  9
$PUCSORTHOREF
  2

  9
$PUCSORTHOVIEW
 70
     0
  9
$PUCSORGTOP
 10
0.0
 20
0.0
 30
0.0
  9
$PUCSORGBOTTOM
 10
0.0
 20
0.0
 30
0.0
  9
$PUCSORGLEFT
 10
0.0
 20
0.0
 30
0.0
  9
$PUCSORGRIGHT
 10
0.0
 20
0.0
 30
0.0
  9
$PUCSORGFRONT
 10
0.0
 20
0.0
 30
0.0
  9
$PUCSORGBACK
 10
0.0
 20
0.0
 30
0.0
  9
$USERI1
 70
     0
  9
$USERI2
 70
     0
  9
$USERI3
 70
     0
  9
$USERI4
 70
     0
  9
$USERI5
 70
     0
  9
$USERR1
 40
0.0
  9
$USERR2
 40
0.0
  9
$USERR3
 40
0.0
  9
$USERR4
 40
0.0
  9
$USERR5
 40
0.0
  9
$WORLDVIEW
 70
     1
  9
$SHADEDGE
 70
     3
  9
$SHADEDIF
 70
    70
  9
$TILEMODE
 70
     1
  9
$MAXACTVP
 70
    64
  9
$PINSBASE
 10
0.0
 20
0.0
 30
0.0
  9
$PLIMCHECK
 70
     0
  9
$PEXTMIN
 10
1.0000000000E+20
 20
1.0000000000E+20
 30
1.0000000000E+20
  9
$PEXTMAX
 10
-1.0000000000E+20
 20
-1.0000000000E+20
 30
-1.0000000000E+20
  9
$PLIMMIN
 10
0.0
 20
0.0
  9
$PLIMMAX
 10
420.0
 20
297.0
  9
$UNITMODE
 70
     0
  9
$VISRETAIN
 70
     1
  9
$PLINEGEN
 70
     0
  9
$PSLTSCALE
 70
     1
  9
$TREEDEPTH
 70
  3020
  9
$CMLSTYLE
  2
Standard
  9
$CMLJUST
 70
     0
  9
$CMLSCALE
 40
20.0
  9
$PROXYGRAPHICS
 70
     1
  9
$MEASUREMENT
 70
     1
  9
$CELWEIGHT
370
    -1
  9
$ENDCAPS
280
     0
  9
$JOINSTYLE
280
     0
  9
$LWDISPLAY
290
     1
  9
$INSUNITS
 70
     4
  9
$HYPERLINKBASE
  1

  9
$STYLESHEET
  1

  9
$XEDIT
290
     1
  9
$CEPSNTYPE
380
     0
  9
$PSTYLEMODE
290
     1
  9
$FINGERPRINTGUID
  2
{c1612073-8bf7-4fbb-bf0f-b3e125b6f178}
  9
$VERSIONGUID
  2
{FAEB1C32-E019-11D5-929B-00C0DF256EC4}
  9
$EXTNAMES
290
     1
  9
$PSVPSCALE
 40
0.0
  9
$OLESTARTUP
290
     0
  0
ENDSEC
  0
SECTION
  2
CLASSES
  0
CLASS
  1
ACDBDICTIONARYWDFLT
  2
AcDbDictionaryWithDefault
  3
ObjectDBX Classes
 90
        0
280
     0
281
     0
  0
CLASS
  1
VISUALSTYLE
  2
AcDbVisualStyle
  3
ObjectDBX Classes
 90
     4095
280
     0
281
     0
  0
CLASS
  1
MATERIAL
  2
AcDbMaterial
  3
ObjectDBX Classes
 90
     1153
280
     0
281
     0
  0
CLASS
  1
SCALE
  2
AcDbScale
  3
ObjectDBX Classes
 90
     1153
280
     0
281
     0
  0
CLASS
  1
TABLESTYLE
  2
AcDbTableStyle
  3
ObjectDBX Classes
 90
     4095
280
     0
281
     0
  0
CLASS
  1
MLEADERSTYLE
  2
AcDbMLeaderStyle
  3
ACDB_MLEADERSTYLE_CLASS
 90
     4095
280
     0
281
     0
  0
CLASS
  1
SUN
  2
AcDbSun
  3
SCENEOE
 90
     1153
280
     0
281
     0
  0
CLASS
  1
ACDBPLACEHOLDER
  2
AcDbPlaceHolder
  3
ObjectDBX Classes
 90
        0
280
     0
281
     0
  0
CLASS
  1
LAYOUT
  2
AcDbLayout
  3
ObjectDBX Classes
 90
        0
280
     0
281
     0
  0
ENDSEC
  0
SECTION
  2
TABLES
  0
TABLE
  2
VPORT
  5
8
330
0
100
AcDbSymbolTable
 70
     1
  0
VPORT
  5
29
330
8
100
AcDbSymbolTableRecord
100
AcDbViewportTableRecord
  2
*Active
 70
     0
 10
0.0
 20
0.0
 11
1.0
 21
1.0
 12
-1000.9319016987
 22
-179.370614043
 13
0.0
 23
0.0
 14
10.0
 24
10.0
 15
10.0
 25
10.0
 16
0.0
 26
0.0
 36
1.0
 17
0.0
 27
0.0
 37
0.0
 40
817.6022872878
 41
1.387148772
 42
50.0
 43
0.0
 44
0.0
 50
0.0
 51
0.0
 71
     0
 72
   100
 73
     1
 74
     3
 75
     0
 76
     0
 77
     0
 78
     0
281
     0
 65
     1
110
0.0
120
0.0
130
0.0
111
1.0
121
0.0
131
0.0
112
0.0
122
1.0
132
0.0
 79
     0
146
0.0
  0
ENDTAB
  0
TABLE
  2
LTYPE
  5
5
330
0
100
AcDbSymbolTable
 70
     6
  0
LTYPE
  5
14
330
5
100
AcDbSymbolTableRecord
100
AcDbLinetypeTableRecord
  2
ByBlock
 70
     0
  3

 72
    65
 73
     0
 40
0.0
  0
LTYPE
  5
15
330
5
100
AcDbSymbolTableRecord
100
AcDbLinetypeTableRecord
  2
ByLayer
 70
     0
  3

 72
    65
 73
     0
 40
0.0
  0
LTYPE
  5
16
330
5
100
AcDbSymbolTableRecord
100
AcDbLinetypeTableRecord
  2
Continuous
 70
     0
  3
Solid line
 72
    65
 73
     0
 40
0.0
  0
LTYPE
  5
5E
330
5
100
AcDbSymbolTableRecord
100
AcDbLinetypeTableRecord
  2
HIDDEN
 70
     0
  3
Hidden __ __ __ __ __ __ __ __ __ __ __ __ __ __
 72
    65
 73
     2
 40
1.905
 49
1.27
 74
     0
 49
-0.635
 74
     0
  0
LTYPE
  5
5F
330
5
100
AcDbSymbolTableRecord
100
AcDbLinetypeTableRecord
  2
PHANTOM
 70
     0
  3
Phantom ______  __  __  ______  __  __  ______
 72
    65
 73
     6
 40
12.7
 49
6.35
 74
     0
 49
-1.27
 74
     0
 49
1.27
 74
     0
 49
-1.27
 74
     0
 49
1.27
 74
     0
 49
-1.27
 74
     0
  0
LTYPE
  5
60
330
5
100
AcDbSymbolTableRecord
100
AcDbLinetypeTableRecord
  2
CENTER
 70
     0
  3
Center ____ _ ____ _ ____ _ ____ _ ____ _ ____
 72
    65
 73
     4
 40
10.16
 49
6.35
 74
     0
 49
-1.27
 74
     0
 49
1.27
 74
     0
 49
-1.27
 74
     0
  0
LTYPE
  5
61
330
5
100
AcDbSymbolTableRecord
100
AcDbLinetypeTableRecord
  2
CENTERX2
 70
     0
  3
Center (2x) ________  __  ________  __  _____
 72
    65
 73
     4
 40
20.32
 49
12.7
 74
     0
 49
-2.54
 74
     0
 49
2.54
 74
     0
 49
-2.54
 74
     0
  0
LTYPE
  5
62
330
5
100
AcDbSymbolTableRecord
100
AcDbLinetypeTableRecord
  2
DOT2
 70
     0
  3
Dot (.5x) ........................................
 72
    65
 73
     2
 40
0.635
 49
0.0
 74
     0
 49
-0.635
 74
     0
  0
ENDTAB
  0
TABLE
  2
LAYER
  5
2
330
0
100
AcDbSymbolTable
 70
     1
  0
LAYER
  5
10
330
2
100
AcDbSymbolTableRecord
100
AcDbLayerTableRecord
  2
0
 70
     0
 62
     7
  6
Continuous
370
    -3
390
F
  0
ENDTAB
  0
TABLE
  2
STYLE
  5
3
330
0
100
AcDbSymbolTable
 70
     1
  0
STYLE
  5
11
330
3
100
AcDbSymbolTableRecord
100
AcDbTextStyleTableRecord
  2
Standard
 70
     0
 40
0.0
 41
1.0
 50
0.0
 71
     0
 42
3.175
  3
txt
  4

  0
ENDTAB
  0
TABLE
  2
VIEW
  5
6
330
0
100
AcDbSymbolTable
 70
     0
  0
ENDTAB
  0
TABLE
  2
UCS
  5
7
330
0
100
AcDbSymbolTable
 70
     0
  0
ENDTAB
  0
TABLE
  2
APPID
  5
9
330
0
100
AcDbSymbolTable
 70
     1
  0
APPID
  5
12
330
9
100
AcDbSymbolTableRecord
100
AcDbRegAppTableRecord
  2
ACAD
 70
     0
  0
ENDTAB
  0
TABLE
  2
DIMSTYLE
  5
A
330
0
100
AcDbSymbolTable
 70
     1
100
AcDbDimStyleTable
  0
DIMSTYLE
105
27
330
A
100
AcDbSymbolTableRecord
100
AcDbDimStyleTableRecord
  2
ISO-25
 70
     0
 41
2.5
 42
0.625
 43
3.75
 44
1.25
 73
     0
 74
     0
 77
     1
 78
     8
140
2.5
141
2.5
143
0.0393700787
147
0.625
171
     3
172
     1
178
     0
271
     2
272
     2
274
     3
278
    44
283
     0
284
     8
340
11
  0
ENDTAB
  0
TABLE
  2
BLOCK_RECORD
  5
1
330
0
100
AcDbSymbolTable
 70
     1
  0
BLOCK_RECORD
  5
1F
330
1
100
AcDbSymbolTableRecord
100
AcDbBlockTableRecord
  2
*Model_Space
340
22
  0
BLOCK_RECORD
  5
1B
330
1
100
AcDbSymbolTableRecord
100
AcDbBlockTableRecord
  2
*Paper_Space
340
1E
  0
BLOCK_RECORD
  5
23
330
1
100
AcDbSymbolTableRecord
100
AcDbBlockTableRecord
  2
*Paper_Space0
340
26
  0
ENDTAB
  0
ENDSEC
  0
SECTION
  2
BLOCKS
  0
BLOCK
  5
20
330
1F
100
AcDbEntity
  8
0
100
AcDbBlockBegin
  2
*Model_Space
 70
     0
 10
0.0
 20
0.0
 30
0.0
  3
*Model_Space
  1

  0
ENDBLK
  5
21
330
1F
100
AcDbEntity
  8
0
100
AcDbBlockEnd
  0
BLOCK
  5
1C
330
1B
100
AcDbEntity
 67
     1
  8
0
100
AcDbBlockBegin
  2
*Paper_Space
 70
     0
 10
0.0
 20
0.0
 30
0.0
  3
*Paper_Space
  1

  0
ENDBLK
  5
1D
330
1B
100
AcDbEntity
 67
     1
  8
0
100
AcDbBlockEnd
  0
BLOCK
  5
24
330
23
100
AcDbEntity
  8
0
100
AcDbBlockBegin
  2
*Paper_Space0
 70
     0
 10
0.0
 20
0.0
 30
0.0
  3
*Paper_Space0
  1

  0
ENDBLK
  5
25
330
23
100
AcDbEntity
  8
0
100
AcDbBlockEnd
  0
ENDSEC
  0
SECTION
  2
ENTITIES
  0
ARC
  5
63
330
1F
100
AcDbEntity
  8
0
  6
Continuous
 62
     7
100
AcDbCircle
 10
-1041.7376433927
 20
142.6042163662
 30
0.0
 40
56.0
100
AcDbArc
 50
90.0
 51
180.0
  0
ARC
  5
64
330
1F
100
AcDbEntity
  8
0
  6
Continuous
 62
     7
100
AcDbCircle
 10
-1041.7376433927
 20
-17.3957836338
 30
0.0
 40
56.0
100
AcDbArc
 50
180.0
 51
270.0
  0
ARC
  5
65
330
1F
100
AcDbEntity
  8
0
  6
Continuous
 62
     7
100
AcDbCircle
 10
-881.7376433927
 20
-17.3957836338
 30
0.0
 40
56.00000000000011
100
AcDbArc
 50
270.0
 51
0.0
  0
ARC
  5
66
330
1F
100
AcDbEntity
  8
0
  6
Continuous
 62
     7
100
AcDbCircle
 10
-881.7376433927
 20
142.6042163662
 30
0.0
 40
56.00000000000011
100
AcDbArc
 50
0.0
 51
90.0
  0
CIRCLE
  5
67
330
1F
100
AcDbEntity
  8
0
  6
Continuous
 62
     7
100
AcDbCircle
 10
-898.2376433927
 20
190.1042163662
 30
0.0
 40
2.500000000000112
  0
CIRCLE
  5
68
330
1F
100
AcDbEntity
  8
0
  6
Continuous
 62
     7
100
AcDbCircle
 10
-850.7376433927
 20
173.6042163662
 30
0.0
 40
2.500000000000004
  0
CIRCLE
  5
69
330
1F
100
AcDbEntity
  8
0
  6
Continuous
 62
     7
100
AcDbCircle
 10
-834.2376433927
 20
126.1042163662
 30
0.0
 40
2.499999999999899
  0
CIRCLE
  5
6A
330
1F
100
AcDbEntity
  8
0
  6
Continuous
 62
     7
100
AcDbCircle
 10
-1089.2376433927
 20
126.1042163662
 30
0.0
 40
2.500000000000116
  0
CIRCLE
  5
6B
330
1F
100
AcDbEntity
  8
0
  6
Continuous
 62
     7
100
AcDbCircle
 10
-1072.7376433927
 20
173.6042163662
 30
0.0
 40
2.499999999999677
  0
CIRCLE
  5
6C
330
1F
100
AcDbEntity
  8
0
  6
Continuous
 62
     7
100
AcDbCircle
 10
-1025.2376433927
 20
190.1042163662
 30
0.0
 40
2.500000000000112
  0
CIRCLE
  5
6D
330
1F
100
AcDbEntity
  8
0
  6
Continuous
 62
     7
100
AcDbCircle
 10
-1089.2376433927
 20
-0.8957836338
 30
0.0
 40
2.500000000000115
  0
CIRCLE
  5
6E
330
1F
100
AcDbEntity
  8
0
  6
Continuous
 62
     7
100
AcDbCircle
 10
-1072.7376433927
 20
-48.3957836338
 30
0.0
 40
2.499999999999682
  0
CIRCLE
  5
6F
330
1F
100
AcDbEntity
  8
0
  6
Continuous
 62
     7
100
AcDbCircle
 10
-1025.2376433927
 20
-64.8957836338
 30
0.0
 40
2.500000000000116
  0
CIRCLE
  5
70
330
1F
100
AcDbEntity
  8
0
  6
Continuous
 62
     7
100
AcDbCircle
 10
-898.2376433927
 20
-64.8957836338
 30
0.0
 40
2.500000000000116
  0
CIRCLE
  5
71
330
1F
100
AcDbEntity
  8
0
  6
Continuous
 62
     7
100
AcDbCircle
 10
-850.7376433927
 20
-48.3957836338
 30
0.0
 40
2.500000000000008
  0
CIRCLE
  5
72
330
1F
100
AcDbEntity
  8
0
  6
Continuous
 62
     7
100
AcDbCircle
 10
-834.2376433927
 20
-0.8957836338
 30
0.0
 40
2.499999999999897
  0
ARC
  5
73
330
1F
100
AcDbEntity
  8
0
  6
Continuous
 62
     7
100
AcDbCircle
 10
-503.9828777933
 20
162.414820902
 30
0.0
 40
59.00000000000003
100
AcDbArc
 50
0.0
 51
90.0
  0
ARC
  5
74
330
1F
100
AcDbEntity
  8
0
  6
Continuous
 62
     7
100
AcDbCircle
 10
-503.9828777933
 20
-39.585179098
 30
0.0
 40
59.00000000000007
100
AcDbArc
 50
270.0
 51
0.0
  0
ARC
  5
75
330
1F
100
AcDbEntity
  8
0
  6
Continuous
 62
     7
100
AcDbCircle
 10
-705.9828777933
 20
-39.585179098
 30
0.0
 40
59.0
100
AcDbArc
 50
180.0
 51
270.0
  0
ARC
  5
76
330
1F
100
AcDbEntity
  8
0
  6
Continuous
 62
     7
100
AcDbCircle
 10
-705.9828777933
 20
162.414820902
 30
0.0
 40
59.0
100
AcDbArc
 50
90.0
 51
180.0
  0
CIRCLE
  5
77
330
1F
100
AcDbEntity
  8
0
  6
Continuous
 62
     7
100
AcDbCircle
 10
-528.9828777933
 20
211.914820902
 30
0.0
 40
2.500000000000012
  0
CIRCLE
  5
78
330
1F
100
AcDbEntity
  8
0
  6
Continuous
 62
     7
100
AcDbCircle
 10
-470.9828777933
 20
195.414820902
 30
0.0
 40
2.499999999999949
  0
CIRCLE
  5
79
330
1F
100
AcDbEntity
  8
0
  6
Continuous
 62
     7
100
AcDbCircle
 10
-454.4828777933
 20
137.414820902
 30
0.0
 40
2.499999999999949
  0
CIRCLE
  5
7A
330
1F
100
AcDbEntity
  8
0
  6
Continuous
 62
     7
100
AcDbCircle
 10
-680.9828777933
 20
211.914820902
 30
0.0
 40
2.500000000000012
  0
CIRCLE
  5
7B
330
1F
100
AcDbEntity
  8
0
  6
Continuous
 62
     7
100
AcDbCircle
 10
-738.9828777933
 20
195.414820902
 30
0.0
 40
2.500000000000004
  0
CIRCLE
  5
7C
330
1F
100
AcDbEntity
  8
0
  6
Continuous
 62
     7
100
AcDbCircle
 10
-755.4828777933
 20
137.414820902
 30
0.0
 40
2.500000000000004
  0
CIRCLE
  5
7D
330
1F
100
AcDbEntity
  8
0
  6
Continuous
 62
     7
100
AcDbCircle
 10
-454.4828777933
 20
-14.585179098
 30
0.0
 40
2.499999999999952
  0
CIRCLE
  5
7E
330
1F
100
AcDbEntity
  8
0
  6
Continuous
 62
     7
100
AcDbCircle
 10
-470.9828777933
 20
-72.585179098
 30
0.0
 40
2.499999999999949
  0
CIRCLE
  5
7F
330
1F
100
AcDbEntity
  8
0
  6
Continuous
 62
     7
100
AcDbCircle
 10
-528.9828777933
 20
-89.085179098
 30
0.0
 40
2.500000000000004
  0
CIRCLE
  5
80
330
1F
100
AcDbEntity
  8
0
  6
Continuous
 62
     7
100
AcDbCircle
 10
-680.9828777933
 20
-89.085179098
 30
0.0
 40
2.500000000000004
  0
CIRCLE
  5
81
330
1F
100
AcDbEntity
  8
0
  6
Continuous
 62
     7
100
AcDbCircle
 10
-738.9828777933
 20
-72.585179098
 30
0.0
 40
2.500000000000004
  0
CIRCLE
  5
82
330
1F
100
AcDbEntity
  8
0
  6
Continuous
 62
     7
100
AcDbCircle
 10
-755.4828777933
 20
-14.585179098
 30
0.0
 40
2.500000000000006
  0
ARC
  5
83
330
1F
100
AcDbEntity
  8
0
  6
Continuous
 62
     7
100
AcDbCircle
 10
-922.0037341448
 20
-216.5156727488
 30
0.0
 40
78.00000000000011
100
AcDbArc
 50
90.0
 51
180.0
  0
ARC
  5
84
330
1F
100
AcDbEntity
  8
0
  6
Continuous
 62
     7
100
AcDbCircle
 10
-922.0037341448
 20
-456.5156727488
 30
0.0
 40
78.00000000000006
100
AcDbArc
 50
180.0
 51
270.0
  0
ARC
  5
85
330
1F
100
AcDbEntity
  8
0
  6
Continuous
 62
     7
100
AcDbCircle
 10
-682.0037341448
 20
-456.5156727488
 30
0.0
 40
77.99999999999989
100
AcDbArc
 50
270.0
 51
0.0
  0
ARC
  5
86
330
1F
100
AcDbEntity
  8
0
  6
Continuous
 62
     7
100
AcDbCircle
 10
-682.0037341448
 20
-216.5156727488
 30
0.0
 40
78.0
100
AcDbArc
 50
0.0
 51
90.0
  0
CIRCLE
  5
87
330
1F
100
AcDbEntity
  8
0
  6
Continuous
 62
     7
100
AcDbCircle
 10
-713.0037341448
 20
-148.5156727488
 30
0.0
 40
2.50000000000012
  0
CIRCLE
  5
88
330
1F
100
AcDbEntity
  8
0
  6
Continuous
 62
     7
100
AcDbCircle
 10
-635.5037341448
 20
-170.0156727488
 30
0.0
 40
2.500000000000004
  0
CIRCLE
  5
89
330
1F
100
AcDbEntity
  8
0
  6
Continuous
 62
     7
100
AcDbCircle
 10
-614.0037341448
 20
-247.5156727488
 30
0.0
 40
2.500000000000004
  0
CIRCLE
  5
8A
330
1F
100
AcDbEntity
  8
0
  6
Continuous
 62
     7
100
AcDbCircle
 10
-990.0037341448
 20
-247.5156727488
 30
0.0
 40
2.499999999999895
  0
CIRCLE
  5
8B
330
1F
100
AcDbEntity
  8
0
  6
Continuous
 62
     7
100
AcDbCircle
 10
-968.5037341448
 20
-170.0156727488
 30
0.0
 40
2.500000000000112
  0
CIRCLE
  5
8C
330
1F
100
AcDbEntity
  8
0
  6
Continuous
 62
     7
100
AcDbCircle
 10
-891.0037341448
 20
-148.5156727488
 30
0.0
 40
2.499999999999903
  0
CIRCLE
  5
8D
330
1F
100
AcDbEntity
  8
0
  6
Continuous
 62
     7
100
AcDbCircle
 10
-614.0037341448
 20
-425.5156727488
 30
0.0
 40
2.500000000000012
  0
CIRCLE
  5
8E
330
1F
100
AcDbEntity
  8
0
  6
Continuous
 62
     7
100
AcDbCircle
 10
-635.5037341448
 20
-503.0156727488
 30
0.0
 40
2.499999999999995
  0
CIRCLE
  5
8F
330
1F
100
AcDbEntity
  8
0
  6
Continuous
 62
     7
100
AcDbCircle
 10
-713.0037341448
 20
-524.5156727488
 30
0.0
 40
2.50000000000012
  0
CIRCLE
  5
90
330
1F
100
AcDbEntity
  8
0
  6
Continuous
 62
     7
100
AcDbCircle
 10
-891.0037341448
 20
-524.5156727488
 30
0.0
 40
2.499999999999903
  0
CIRCLE
  5
91
330
1F
100
AcDbEntity
  8
0
  6
Continuous
 62
     7
100
AcDbCircle
 10
-968.5037341448
 20
-503.0156727488
 30
0.0
 40
2.500000000000104
  0
CIRCLE
  5
92
330
1F
100
AcDbEntity
  8
0
  6
Continuous
 62
     7
100
AcDbCircle
 10
-990.0037341448
 20
-425.5156727488
 30
0.0
 40
2.499999999999903
  0
ARC
  5
93
330
1F
100
AcDbEntity
  8
0
  6
Continuous
 62
     7
100
AcDbCircle
 10
-1477.8809256041
 20
-501.156048988
 30
0.0
 40
79.0
100
AcDbArc
 50
180.0
 51
270.0
  0
ARC
  5
94
330
1F
100
AcDbEntity
  8
0
  6
Continuous
 62
     7
100
AcDbCircle
 10
-1161.8809256041
 20
-501.156048988
 30
0.0
 40
79.0
100
AcDbArc
 50
270.0
 51
0.0
  0
ARC
  5
95
330
1F
100
AcDbEntity
  8
0
  6
Continuous
 62
     7
100
AcDbCircle
 10
-1161.8809256041
 20
-185.156048988
 30
0.0
 40
79.0
100
AcDbArc
 50
0.0
 51
90.0
  0
ARC
  5
96
330
1F
100
AcDbEntity
  8
0
  6
Continuous
 62
     7
100
AcDbCircle
 10
-1477.8809256041
 20
-185.156048988
 30
0.0
 40
79.0
100
AcDbArc
 50
90.0
 51
180.0
  0
CIRCLE
  5
97
330
1F
100
AcDbEntity
  8
0
  6
Continuous
 62
     7
100
AcDbCircle
 10
-1114.8809256041
 20
-138.156048988
 30
0.0
 40
2.500000000000104
  0
CIRCLE
  5
98
330
1F
100
AcDbEntity
  8
0
  6
Continuous
 62
     7
100
AcDbCircle
 10
-1094.8809256041
 20
-227.156048988
 30
0.0
 40
2.499999999999895
  0
CIRCLE
  5
99
330
1F
100
AcDbEntity
  8
0
  6
Continuous
 62
     7
100
AcDbCircle
 10
-1203.8809256041
 20
-118.156048988
 30
0.0
 40
2.499999999999895
  0
CIRCLE
  5
9A
330
1F
100
AcDbEntity
  8
0
  6
Continuous
 62
     7
100
AcDbCircle
 10
-1435.8809256041
 20
-118.156048988
 30
0.0
 40
2.499999999999895
  0
CIRCLE
  5
9B
330
1F
100
AcDbEntity
  8
0
  6
Continuous
 62
     7
100
AcDbCircle
 10
-1524.8809256041
 20
-138.156048988
 30
0.0
 40
2.499999999999886
  0
CIRCLE
  5
9C
330
1F
100
AcDbEntity
  8
0
  6
Continuous
 62
     7
100
AcDbCircle
 10
-1544.8809256041
 20
-227.156048988
 30
0.0
 40
2.499999999999895
  0
CIRCLE
  5
9D
330
1F
100
AcDbEntity
  8
0
  6
Continuous
 62
     7
100
AcDbCircle
 10
-1544.8809256041
 20
-459.156048988
 30
0.0
 40
2.500000000000104
  0
CIRCLE
  5
9E
330
1F
100
AcDbEntity
  8
0
  6
Continuous
 62
     7
100
AcDbCircle
 10
-1524.8809256041
 20
-548.156048988
 30
0.0
 40
2.499999999999903
  0
CIRCLE
  5
9F
330
1F
100
AcDbEntity
  8
0
  6
Continuous
 62
     7
100
AcDbCircle
 10
-1435.8809256041
 20
-568.156048988
 30
0.0
 40
2.500000000000054
  0
CIRCLE
  5
A0
330
1F
100
AcDbEntity
  8
0
  6
Continuous
 62
     7
100
AcDbCircle
 10
-1203.8809256041
 20
-568.156048988
 30
0.0
 40
2.49999999999987
  0
CIRCLE
  5
A1
330
1F
100
AcDbEntity
  8
0
  6
Continuous
 62
     7
100
AcDbCircle
 10
-1094.8809256041
 20
-459.156048988
 30
0.0
 40
2.499999999999886
  0
CIRCLE
  5
A2
330
1F
100
AcDbEntity
  8
0
  6
Continuous
 62
     7
100
AcDbCircle
 10
-1114.8809256041
 20
-548.156048988
 30
0.0
 40
2.499999999999903
  0
ARC
  5
A3
330
1F
100
AcDbEntity
  8
0
  6
Continuous
 62
     7
100
AcDbCircle
 10
-1246.6293636357
 20
118.8255203992
 30
0.0
 40
52.0
100
AcDbArc
 50
0.0
 51
90.0
  0
ARC
  5
A4
330
1F
100
AcDbEntity
  8
0
  6
Continuous
 62
     7
100
AcDbCircle
 10
-1246.6293636357
 20
-1.1744796008
 30
0.0
 40
52.0
100
AcDbArc
 50
270.0
 51
0.0
  0
ARC
  5
A5
330
1F
100
AcDbEntity
  8
0
  6
Continuous
 62
     7
100
AcDbCircle
 10
-1366.6293636357
 20
-1.1744796008
 30
0.0
 40
52.0
100
AcDbArc
 50
180.0
 51
270.0
  0
ARC
  5
A6
330
1F
100
AcDbEntity
  8
0
  6
Continuous
 62
     7
100
AcDbCircle
 10
-1366.6293636357
 20
118.8255203992
 30
0.0
 40
52.0
100
AcDbArc
 50
90.0
 51
180.0
  0
ARC
  5
A7
330
1F
100
AcDbEntity
  8
0
  6
Continuous
 62
     7
100
AcDbCircle
 10
-1253.6293636357
 20
5.8255203992
 30
0.0
 40
40.0
100
AcDbArc
 50
270.0
 51
0.0
  0
ARC
  5
A8
330
1F
100
AcDbEntity
  8
0
  6
Continuous
 62
     7
100
AcDbCircle
 10
-1359.6293636357
 20
5.8255203992
 30
0.0
 40
40.0
100
AcDbArc
 50
180.0
 51
270.0
  0
ARC
  5
A9
330
1F
100
AcDbEntity
  8
0
  6
Continuous
 62
     7
100
AcDbCircle
 10
-1359.6293636357
 20
111.8255203992
 30
0.0
 40
40.0
100
AcDbArc
 50
90.0
 51
180.0
  0
ARC
  5
AA
330
1F
100
AcDbEntity
  8
0
  6
Continuous
 62
     7
100
AcDbCircle
 10
-1253.6293636357
 20
111.8255203992
 30
0.0
 40
40.0
100
AcDbArc
 50
0.0
 51
90.0
  0
CIRCLE
  5
AB
330
1F
100
AcDbEntity
  8
0
  6
Continuous
 62
     7
100
AcDbCircle
 10
-1255.6293636357
 20
162.3255203992
 30
0.0
 40
2.499999999999886
  0
CIRCLE
  5
AC
330
1F
100
AcDbEntity
  8
0
  6
Continuous
 62
     7
100
AcDbCircle
 10
-1203.1293636357
 20
109.8255203992
 30
0.0
 40
2.499999999999895
  0
CIRCLE
  5
AD
330
1F
100
AcDbEntity
  8
0
  6
Continuous
 62
     7
100
AcDbCircle
 10
-1357.6293636357
 20
162.3255203992
 30
0.0
 40
2.49999999999987
  0
CIRCLE
  5
AE
330
1F
100
AcDbEntity
  8
0
  6
Continuous
 62
     7
100
AcDbCircle
 10
-1410.1293636357
 20
109.8255203992
 30
0.0
 40
2.499999999999878
  0
CIRCLE
  5
AF
330
1F
100
AcDbEntity
  8
0
  6
Continuous
 62
     7
100
AcDbCircle
 10
-1357.6293636357
 20
-44.6744796008
 30
0.0
 40
2.499999999999874
  0
CIRCLE
  5
B0
330
1F
100
AcDbEntity
  8
0
  6
Continuous
 62
     7
100
AcDbCircle
 10
-1410.1293636357
 20
7.8255203992
 30
0.0
 40
2.499999999999877
  0
CIRCLE
  5
B1
330
1F
100
AcDbEntity
  8
0
  6
Continuous
 62
     7
100
AcDbCircle
 10
-1203.1293636357
 20
7.8255203992
 30
0.0
 40
2.499999999999893
  0
CIRCLE
  5
B2
330
1F
100
AcDbEntity
  8
0
  6
Continuous
 62
     7
100
AcDbCircle
 10
-1255.6293636357
 20
-44.6744796008
 30
0.0
 40
2.499999999999889
  0
LINE
  5
B3
330
1F
100
AcDbEntity
  8
0
  6
Continuous
 62
     7
100
AcDbLine
 10
-878.7122107545
 20
181.1042163662
 30
0.0
 11
-843.2376433927
 21
145.6296490043
 31
0.0
  0
LINE
  5
B4
330
1F
100
AcDbEntity
  8
0
  6
Continuous
 62
     7
100
AcDbLine
 10
-1041.7376433927
 20
-73.3957836338
 30
0.0
 11
-881.7376433927
 21
-73.3957836338
 31
0.0
  0
LINE
  5
B5
330
1F
100
AcDbEntity
  8
0
  6
Continuous
 62
     7
100
AcDbLine
 10
-1097.7376433927
 20
-17.3957836338
 30
0.0
 11
-1097.7376433927
 21
142.6042163662
 31
0.0
  0
LINE
  5
B6
330
1F
100
AcDbEntity
  8
0
  6
Continuous
 62
     7
100
AcDbLine
 10
-1041.7376433927
 20
198.6042163662
 30
0.0
 11
-881.7376433927
 21
198.6042163662
 31
0.0
  0
LINE
  5
B7
330
1F
100
AcDbEntity
  8
0
  6
Continuous
 62
     7
100
AcDbLine
 10
-825.7376433927
 20
-17.3957836338
 30
0.0
 11
-825.7376433927
 21
142.6042163662
 31
0.0
  0
LINE
  5
B8
330
1F
100
AcDbEntity
  8
0
  6
Continuous
 62
     7
100
AcDbLine
 10
-1044.7630760309
 20
-55.8957836338
 30
0.0
 11
-878.7122107545
 21
-55.8957836338
 31
0.0
  0
LINE
  5
B9
330
1F
100
AcDbEntity
  8
0
  6
Continuous
 62
     7
100
AcDbLine
 10
-1080.2376433927
 20
-20.421216272
 30
0.0
 11
-1080.2376433927
 21
145.6296490043
 31
0.0
  0
LINE
  5
BA
330
1F
100
AcDbEntity
  8
0
  6
Continuous
 62
     7
100
AcDbLine
 10
-1044.7630760309
 20
181.1042163662
 30
0.0
 11
-878.7122107545
 21
181.1042163662
 31
0.0
  0
LINE
  5
BB
330
1F
100
AcDbEntity
  8
0
  6
Continuous
 62
     7
100
AcDbLine
 10
-843.2376433927
 20
-20.421216272
 30
0.0
 11
-843.2376433927
 21
145.6296490043
 31
0.0
  0
LINE
  5
BC
330
1F
100
AcDbEntity
  8
0
  6
Continuous
 62
     7
100
AcDbLine
 10
-1080.2376433927
 20
-20.421216272
 30
0.0
 11
-1044.7630760309
 21
-55.8957836338
 31
0.0
  0
LINE
  5
BD
330
1F
100
AcDbEntity
  8
0
  6
Continuous
 62
     7
100
AcDbLine
 10
-1080.2376433927
 20
145.6296490043
 30
0.0
 11
-1044.7630760309
 21
181.1042163662
 31
0.0
  0
LINE
  5
BE
330
1F
100
AcDbEntity
  8
0
  6
Continuous
 62
     7
100
AcDbLine
 10
-878.7122107545
 20
-55.8957836338
 30
0.0
 11
-843.2376433927
 21
-20.421216272
 31
0.0
  0
LINE
  5
BF
330
1F
100
AcDbEntity
  8
0
  6
Continuous
 62
     7
100
AcDbLine
 10
-705.9828777933
 20
-98.585179098
 30
0.0
 11
-503.9828777933
 21
-98.585179098
 31
0.0
  0
LINE
  5
C0
330
1F
100
AcDbEntity
  8
0
  6
Continuous
 62
     7
100
AcDbLine
 10
-764.9828777933
 20
-39.585179098
 30
0.0
 11
-764.9828777933
 21
162.414820902
 31
0.0
  0
LINE
  5
C1
330
1F
100
AcDbEntity
  8
0
  6
Continuous
 62
     7
100
AcDbLine
 10
-705.9828777933
 20
221.414820902
 30
0.0
 11
-503.9828777933
 21
221.414820902
 31
0.0
  0
LINE
  5
C2
330
1F
100
AcDbEntity
  8
0
  6
Continuous
 62
     7
100
AcDbLine
 10
-444.9828777933
 20
-39.585179098
 30
0.0
 11
-444.9828777933
 21
162.414820902
 31
0.0
  0
LINE
  5
C3
330
1F
100
AcDbEntity
  8
0
  6
Continuous
 62
     7
100
AcDbLine
 10
-745.4828777933
 20
171.9377282232
 30
0.0
 11
-715.5057851146
 21
201.914820902
 31
0.0
  0
LINE
  5
C4
330
1F
100
AcDbEntity
  8
0
  6
Continuous
 62
     7
100
AcDbLine
 10
-464.4828777933
 20
171.9377282232
 30
0.0
 11
-494.4599704721
 21
201.914820902
 31
0.0
  0
LINE
  5
C5
330
1F
100
AcDbEntity
  8
0
  6
Continuous
 62
     7
100
AcDbLine
 10
-715.5057851145
 20
-79.085179098
 30
0.0
 11
-494.4599704721
 21
-79.085179098
 31
0.0
  0
LINE
  5
C6
330
1F
100
AcDbEntity
  8
0
  6
Continuous
 62
     7
100
AcDbLine
 10
-745.4828777933
 20
-49.1080864192
 30
0.0
 11
-745.4828777933
 21
171.9377282232
 31
0.0
  0
LINE
  5
C7
330
1F
100
AcDbEntity
  8
0
  6
Continuous
 62
     7
100
AcDbLine
 10
-715.5057851146
 20
201.914820902
 30
0.0
 11
-494.4599704721
 21
201.914820902
 31
0.0
  0
LINE
  5
C8
330
1F
100
AcDbEntity
  8
0
  6
Continuous
 62
     7
100
AcDbLine
 10
-464.4828777933
 20
-49.1080864192
 30
0.0
 11
-464.4828777933
 21
171.9377282232
 31
0.0
  0
LINE
  5
C9
330
1F
100
AcDbEntity
  8
0
  6
Continuous
 62
     7
100
AcDbLine
 10
-464.4828777933
 20
-49.1080864192
 30
0.0
 11
-494.4599704721
 21
-79.085179098
 31
0.0
  0
LINE
  5
CA
330
1F
100
AcDbEntity
  8
0
  6
Continuous
 62
     7
100
AcDbLine
 10
-715.5057851145
 20
-79.085179098
 30
0.0
 11
-745.4828777933
 21
-49.1080864192
 31
0.0
  0
LINE
  5
CB
330
1F
100
AcDbEntity
  8
0
  6
Continuous
 62
     7
100
AcDbLine
 10
-627.5037341448
 20
-204.1313297138
 30
0.0
 11
-669.6193911099
 21
-162.0156727488
 31
0.0
  0
LINE
  5
CC
330
1F
100
AcDbEntity
  8
0
  6
Continuous
 62
     7
100
AcDbLine
 10
-922.0037341448
 20
-534.5156727488
 30
0.0
 11
-682.0037341448
 21
-534.5156727488
 31
0.0
  0
LINE
  5
CD
330
1F
100
AcDbEntity
  8
0
  6
Continuous
 62
     7
100
AcDbLine
 10
-1000.0037341448
 20
-456.5156727488
 30
0.0
 11
-1000.0037341448
 21
-216.5156727488
 31
0.0
  0
LINE
  5
CE
330
1F
100
AcDbEntity
  8
0
  6
Continuous
 62
     7
100
AcDbLine
 10
-922.0037341448
 20
-138.5156727488
 30
0.0
 11
-682.0037341448
 21
-138.5156727488
 31
0.0
  0
LINE
  5
CF
330
1F
100
AcDbEntity
  8
0
  6
Continuous
 62
     7
100
AcDbLine
 10
-604.0037341448
 20
-456.5156727488
 30
0.0
 11
-604.0037341448
 21
-216.5156727488
 31
0.0
  0
LINE
  5
D0
330
1F
100
AcDbEntity
  8
0
  6
Continuous
 62
     7
100
AcDbLine
 10
-934.3880771798
 20
-511.0156727488
 30
0.0
 11
-669.6193911099
 21
-511.0156727488
 31
0.0
  0
LINE
  5
D1
330
1F
100
AcDbEntity
  8
0
  6
Continuous
 62
     7
100
AcDbLine
 10
-976.5037341448
 20
-468.9000157837
 30
0.0
 11
-976.5037341448
 21
-204.1313297138
 31
0.0
  0
LINE
  5
D2
330
1F
100
AcDbEntity
  8
0
  6
Continuous
 62
     7
100
AcDbLine
 10
-934.3880771798
 20
-162.0156727488
 30
0.0
 11
-669.6193911099
 21
-162.0156727488
 31
0.0
  0
LINE
  5
D3
330
1F
100
AcDbEntity
  8
0
  6
Continuous
 62
     7
100
AcDbLine
 10
-627.5037341448
 20
-468.9000157837
 30
0.0
 11
-627.5037341448
 21
-204.1313297138
 31
0.0
  0
LINE
  5
D4
330
1F
100
AcDbEntity
  8
0
  6
Continuous
 62
     7
100
AcDbLine
 10
-627.5037341448
 20
-468.9000157837
 30
0.0
 11
-669.6193911099
 21
-511.0156727488
 31
0.0
  0
LINE
  5
D5
330
1F
100
AcDbEntity
  8
0
  6
Continuous
 62
     7
100
AcDbLine
 10
-934.3880771798
 20
-511.0156727488
 30
0.0
 11
-976.5037341448
 21
-468.9000157837
 31
0.0
  0
LINE
  5
D6
330
1F
100
AcDbEntity
  8
0
  6
Continuous
 62
     7
100
AcDbLine
 10
-976.5037341448
 20
-204.1313297138
 30
0.0
 11
-934.3880771798
 21
-162.0156727488
 31
0.0
  0
LINE
  5
D7
330
1F
100
AcDbEntity
  8
0
  6
Continuous
 62
     7
100
AcDbLine
 10
-1477.8809256041
 20
-580.156048988
 30
0.0
 11
-1161.8809256041
 21
-580.156048988
 31
0.0
  0
LINE
  5
D8
330
1F
100
AcDbEntity
  8
0
  6
Continuous
 62
     7
100
AcDbLine
 10
-1556.8809256041
 20
-501.156048988
 30
0.0
 11
-1556.8809256041
 21
-185.156048988
 31
0.0
  0
LINE
  5
D9
330
1F
100
AcDbEntity
  8
0
  6
Continuous
 62
     7
100
AcDbLine
 10
-1477.8809256041
 20
-106.156048988
 30
0.0
 11
-1161.8809256041
 21
-106.156048988
 31
0.0
  0
LINE
  5
DA
330
1F
100
AcDbEntity
  8
0
  6
Continuous
 62
     7
100
AcDbLine
 10
-1082.8809256041
 20
-501.156048988
 30
0.0
 11
-1082.8809256041
 21
-185.156048988
 31
0.0
  0
LINE
  5
DB
330
1F
100
AcDbEntity
  8
0
  6
Continuous
 62
     7
100
AcDbLine
 10
-1487.9759467577
 20
-552.656048988
 30
0.0
 11
-1151.7859044505
 21
-552.6560489881
 31
0.0
  0
LINE
  5
DC
330
1F
100
AcDbEntity
  8
0
  6
Continuous
 62
     7
100
AcDbLine
 10
-1529.3809256041
 20
-511.2510701417
 30
0.0
 11
-1529.3809256041
 21
-175.0610278344
 31
0.0
  0
LINE
  5
DD
330
1F
100
AcDbEntity
  8
0
  6
Continuous
 62
     7
100
AcDbLine
 10
-1487.9759467577
 20
-133.6560489881
 30
0.0
 11
-1151.7859044505
 21
-133.6560489881
 31
0.0
  0
LINE
  5
DE
330
1F
100
AcDbEntity
  8
0
  6
Continuous
 62
     7
100
AcDbLine
 10
-1110.3809256041
 20
-511.2510701416
 30
0.0
 11
-1110.3809256041
 21
-175.0610278344
 31
0.0
  0
LINE
  5
DF
330
1F
100
AcDbEntity
  8
0
  6
Continuous
 62
     7
100
AcDbLine
 10
-1529.3809256041
 20
-175.0610278344
 30
0.0
 11
-1487.9759467577
 21
-133.6560489881
 31
0.0
  0
LINE
  5
E0
330
1F
100
AcDbEntity
  8
0
  6
Continuous
 62
     7
100
AcDbLine
 10
-1110.3809256041
 20
-511.2510701416
 30
0.0
 11
-1151.7859044505
 21
-552.6560489881
 31
0.0
  0
LINE
  5
E1
330
1F
100
AcDbEntity
  8
0
  6
Continuous
 62
     7
100
AcDbLine
 10
-1487.9759467577
 20
-552.656048988
 30
0.0
 11
-1529.3809256041
 21
-511.2510701417
 31
0.0
  0
LINE
  5
E2
330
1F
100
AcDbEntity
  8
0
  6
Continuous
 62
     7
100
AcDbLine
 10
-1110.3809256041
 20
-175.0610278344
 30
0.0
 11
-1151.7859044505
 21
-133.6560489881
 31
0.0
  0
LINE
  5
E3
330
1F
100
AcDbEntity
  8
0
  6
Continuous
 62
     7
100
AcDbLine
 10
-1366.6293636357
 20
-53.1744796008
 30
0.0
 11
-1246.6293636357
 21
-53.1744796008
 31
0.0
  0
LINE
  5
E4
330
1F
100
AcDbEntity
  8
0
  6
Continuous
 62
     7
100
AcDbLine
 10
-1418.6293636357
 20
-1.1744796008
 30
0.0
 11
-1418.6293636357
 21
118.8255203992
 31
0.0
  0
LINE
  5
E5
330
1F
100
AcDbEntity
  8
0
  6
Continuous
 62
     7
100
AcDbLine
 10
-1366.6293636357
 20
170.8255203992
 30
0.0
 11
-1246.6293636357
 21
170.8255203992
 31
0.0
  0
LINE
  5
E6
330
1F
100
AcDbEntity
  8
0
  6
Continuous
 62
     7
100
AcDbLine
 10
-1194.6293636357
 20
-1.1744796008
 30
0.0
 11
-1194.6293636357
 21
118.8255203992
 31
0.0
  0
LINE
  5
E7
330
1F
100
AcDbEntity
  8
0
  6
Continuous
 62
     7
100
AcDbLine
 10
-1359.6293636357
 20
-34.1744796008
 30
0.0
 11
-1253.6293636357
 21
-34.1744796008
 31
0.0
  0
LINE
  5
E8
330
1F
100
AcDbEntity
  8
0
  6
Continuous
 62
     7
100
AcDbLine
 10
-1399.6293636357
 20
5.8255203992
 30
0.0
 11
-1399.6293636357
 21
111.8255203992
 31
0.0
  0
LINE
  5
E9
330
1F
100
AcDbEntity
  8
0
  6
Continuous
 62
     7
100
AcDbLine
 10
-1359.6293636357
 20
151.8255203992
 30
0.0
 11
-1253.6293636357
 21
151.8255203992
 31
0.0
  0
LINE
  5
EA
330
1F
100
AcDbEntity
  8
0
  6
Continuous
 62
     7
100
AcDbLine
 10
-1213.6293636357
 20
5.8255203992
 30
0.0
 11
-1213.6293636357
 21
111.8255203992
 31
0.0
  0
LWPOLYLINE
  5
EB
330
1F
100
AcDbEntity
  8
0
  6
Continuous
 62
     7
100
AcDbPolyline
 90
       12
 70
   128
 43
0.0
 10
-961.1268043518
 20
67.3667163662
 10
-960.6996626235
 20
67.3667163662
 10
-960.6996626235
 20
67.3667163662
 10
-960.6996626235
 20
63.0926779046
 10
-960.6996626235
 20
63.0926779046
 10
-958.8679318542
 20
63.0926779046
 10
-958.8679318542
 20
63.0926779046
 10
-958.8679318542
 20
62.6042163662
 10
-958.8679318542
 20
62.6042163662
 10
-961.1270664696
 20
62.6042163662
 10
-961.1270664696
 20
62.6042163662
 10
-961.1270664696
 20
67.3667163662
  0
LWPOLYLINE
  5
EC
330
1F
100
AcDbEntity
  8
0
  6
Continuous
 62
     7
100
AcDbPolyline
 90
       12
 70
   128
 43
0.0
 10
-958.1961631775
 20
67.3667163662
 10
-955.2655280081
 20
67.3667163662
 10
-955.2655280081
 20
67.3667163662
 10
-957.7688933927
 20
62.4821009815
 10
-957.7688933927
 20
62.4821009815
 10
-958.1381016259
 20
62.6853086138
 10
-958.1381016259
 20
62.6853086138
 10
-955.9886800513
 20
66.8782548277
 10
-955.9886800513
 20
66.8782548277
 10
-958.1962972388
 20
66.8782548277
 10
-958.1962972388
 20
66.8782548277
 10
-958.1962972388
 20
67.3667163662
  0
LWPOLYLINE
  5
ED
330
1F
100
AcDbEntity
  8
0
  6
Continuous
 62
     7
100
AcDbPolyline
 90
       24
 70
   128
 43
0.0
 10
-954.7462463379
 20
67.3667163662
 10
-954.2533059528
 20
67.3667163662
 10
-954.2533059528
 20
67.3667163662
 10
-953.0063933927
 20
65.418594371
 10
-953.0063933927
 20
65.418594371
 10
-951.7594808326
 20
67.3667163662
 10
-951.7594808326
 20
67.3667163662
 10
-951.2662491619
 20
67.3667163662
 10
-951.2662491619
 20
67.3667163662
 10
-952.7593005441
 20
65.0331676883
 10
-952.7593005441
 20
65.0331676883
 10
-951.2051914696
 20
62.6042163662
 10
-951.2051914696
 20
62.6042163662
 10
-951.6984231403
 20
62.6042163662
 10
-951.6984231403
 20
62.6042163662
 10
-953.0063933927
 20
64.6477410056
 10
-953.0063933927
 20
64.6477410056
 10
-954.3143636451
 20
62.6042163662
 10
-954.3143636451
 20
62.6042163662
 10
-954.8075953158
 20
62.6042163662
 10
-954.8075953158
 20
62.6042163662
 10
-953.2525322148
 20
65.0331676883
 10
-953.2525322148
 20
65.0331676883
 10
-954.7465376235
 20
67.3667163662
  0
LWPOLYLINE
  5
EE
330
1F
100
AcDbEntity
  8
0
  6
Continuous
 62
     7
100
AcDbPolyline
 90
       12
 70
   128
 43
0.0
 10
-949.7957229614
 20
67.3667163662
 10
-948.9155280081
 20
67.3667163662
 10
-948.9155280081
 20
67.3667163662
 10
-948.9155280081
 20
62.6042163662
 10
-948.9155280081
 20
62.6042163662
 10
-949.3429318542
 20
62.6042163662
 10
-949.3429318542
 20
62.6042163662
 10
-949.3429318542
 20
66.8782548277
 10
-949.3429318542
 20
66.8782548277
 10
-950.0756241619
 20
66.8782548277
 10
-950.0756241619
 20
66.8782548277
 10
-949.7960944143
 20
67.3667163662
  0
LWPOLYLINE
  5
EF
330
1F
100
AcDbEntity
  8
0
  6
Continuous
 62
     7
100
AcDbPolyline
 90
      100
 70
   128
 43
0.0
 10
-947.1445083618
 20
64.9835583133
 10
-947.1419928518
 20
65.2125246594
 10
-947.1324525874
 20
65.4281346354
 10
-947.1162341379
 20
65.6313422676
 10
-947.0942915297
 20
65.8202395032
 10
-947.0666247629
 20
65.9957803686
 10
-947.0313257845
 20
66.1579648638
 10
-946.9903026475
 20
66.3067929888
 10
-946.9435553518
 20
66.4422647436
 10
-946.8910838975
 20
66.5672422075
 10
-946.8328882845
 20
66.6845874599
 10
-946.7689685129
 20
66.7933464743
 10
-946.700278609
 20
66.8954273037
 10
-946.626818573
 20
66.988921895
 10
-946.5485884047
 20
67.0747842748
 10
-946.4646340778
 20
67.1520604166
 10
-946.3749555922
 20
67.2226583734
 10
-946.2814610009
 20
67.2846700921
 10
-946.1851043302
 20
67.3390495993
 10
-946.0868396066
 20
67.3848428686
 10
-945.9847587773
 20
67.4220498998
 10
-945.8807698951
 20
67.4516247195
 10
-945.7739189336
 20
67.4726133013
 10
-945.6651599191
 20
67.485015645
 10
-945.5525847989
 20
67.4888317508
 10
-945.5525847989
 20
67.4888317508
 10
-945.4390556523
 20
67.485015645
 10
-945.3274345586
 20
67.4726133013
 10
-945.2196295706
 20
67.4516247195
 10
-945.1137326355
 20
67.4220498998
 10
-945.0106977797
 20
67.3848428686
 10
-944.9105250033
 20
67.3390495993
 10
-944.8122602797
 20
67.2846700921
 10
-944.7178116619
 20
67.2217043469
 10
-944.6271791499
 20
67.1511063902
 10
-944.5403627437
 20
67.070968169
 10
-944.4592704961
 20
66.9831977363
 10
-944.3829483807
 20
66.8877950921
 10
-944.3113963975
 20
66.7828521835
 10
-944.2446145465
 20
66.6702770633
 10
-944.1835568542
 20
66.5491157051
 10
-944.1263152677
 20
66.4193681089
 10
-944.0757518662
 20
66.2800802484
 10
-944.0309126235
 20
66.1293440705
 10
-943.9937055922
 20
65.9671595753
 10
-943.9631767461
 20
65.7935267628
 10
-943.939326085
 20
65.608445633
 10
-943.922153609
 20
65.4109621594
 10
-943.9126133446
 20
65.202984395
 10
-943.9087972388
 20
64.9835583133
 10
-943.9087972388
 20
64.9835583133
 10
-943.9126133446
 20
64.765086258
 10
-943.922153609
 20
64.55806252
 10
-943.939326085
 20
64.3615330729
 10
-943.9622227196
 20
64.1774059695
 10
-943.9927515658
 20
64.0047271835
 10
-944.029958597
 20
63.8434967147
 10
-944.0728897869
 20
63.6927605368
 10
-944.1234531884
 20
63.5544267027
 10
-944.1797407485
 20
63.425633133
 10
-944.2407984408
 20
63.3054258013
 10
-944.3066262653
 20
63.1928506811
 10
-944.3781782485
 20
63.0879077724
 10
-944.4545003638
 20
62.9915511017
 10
-944.5365466379
 20
62.903780669
 10
-944.6233630441
 20
62.8236424479
 10
-944.7149495826
 20
62.7520904647
 10
-944.8103522268
 20
62.6891247195
 10
-944.9086169504
 20
62.6337911859
 10
-945.0097437533
 20
62.5879979166
 10
-945.112778609
 20
62.5498368589
 10
-945.2186755441
 20
62.5202620392
 10
-945.3274345586
 20
62.4992734575
 10
-945.4390556523
 20
62.4859170873
 10
-945.5525847989
 20
62.4821009815
 10
-945.5525847989
 20
62.4821009815
 10
-945.6651599191
 20
62.4859170873
 10
-945.7739189336
 20
62.4983194311
 10
-945.8807698951
 20
62.5193080128
 10
-945.9838047509
 20
62.5479288061
 10
-946.0849315537
 20
62.5841818109
 10
-946.1831962773
 20
62.6299750801
 10
-946.2785989215
 20
62.6834005609
 10
-946.3711394864
 20
62.7444582532
 10
-946.4598639456
 20
62.8141021835
 10
-946.5438182725
 20
62.8913783253
 10
-946.6220484408
 20
62.9772407051
 10
-946.6955084768
 20
63.0716893229
 10
-946.7641983807
 20
63.1728161258
 10
-946.8281181523
 20
63.2825291666
 10
-946.8872677917
 20
63.4008284455
 10
-946.9406932725
 20
63.5267599359
 10
-946.9883945946
 20
63.6631857171
 10
-947.0303717581
 20
63.8129678686
 10
-947.06471671
 20
63.9761063902
 10
-947.0933375033
 20
64.1516472556
 10
-947.1162341379
 20
64.3395904647
 10
-947.1324525874
 20
64.5418440705
 10
-947.1419928518
 20
64.75650002
 10
-947.1448549312
 20
64.9835583133
  0
LWPOLYLINE
  5
F0
330
1F
100
AcDbEntity
  8
0
  6
Continuous
 62
     7
100
AcDbPolyline
 90
       85
 70
   128
 43
0.0
 10
-946.7172622681
 20
64.9854663662
 10
-946.7155430321
 20
64.7946610777
 10
-946.7079108206
 20
64.6153041065
 10
-946.6964625033
 20
64.4473954527
 10
-946.6811980802
 20
64.292843169
 10
-946.6602094985
 20
64.1497392027
 10
-946.635404811
 20
64.0180835537
 10
-946.6058299912
 20
63.8988302484
 10
-946.5714850393
 20
63.7919792868
 10
-946.5323699552
 20
63.6937145633
 10
-946.4894387653
 20
63.6021280248
 10
-946.4426914696
 20
63.516265645
 10
-946.3911740417
 20
63.4370814503
 10
-946.3348864816
 20
63.3636214142
 10
-946.2747828158
 20
63.2958855368
 10
-946.2099090177
 20
63.2348278445
 10
-946.1412191138
 20
63.1794943109
 10
-945.9962070946
 20
63.0879077724
 10
-945.8473789696
 20
63.0230339743
 10
-945.6947347388
 20
62.9839188902
 10
-945.5382744023
 20
62.97056252
 10
-945.5382744023
 20
62.97056252
 10
-945.3808600393
 20
62.9829648638
 10
-945.2282158086
 20
63.0220799479
 10
-945.0812957364
 20
63.0850456931
 10
-944.9391457965
 20
63.1747241787
 10
-944.8714099191
 20
63.2291036859
 10
-944.8084441739
 20
63.2892073517
 10
-944.7492945345
 20
63.3569432291
 10
-944.6939610009
 20
63.4304032652
 10
-944.6433975994
 20
63.5095874599
 10
-944.5966503037
 20
63.5964038662
 10
-944.5546731403
 20
63.6889444311
 10
-944.5165120826
 20
63.7881631811
 10
-944.5165120826
 20
63.7881631811
 10
-944.4745349191
 20
63.9160027243
 10
-944.4373278879
 20
64.0495664263
 10
-944.4067990417
 20
64.1898083133
 10
-944.3810403278
 20
64.3357743589
 10
-944.3619597989
 20
64.4884185897
 10
-944.3476494023
 20
64.6477410056
 10
-944.3390631643
 20
64.8137416065
 10
-944.336201085
 20
64.9854663662
 10
-944.336201085
 20
64.9854663662
 10
-944.3390631643
 20
65.1571911258
 10
-944.3457413494
 20
65.3212836738
 10
-944.3590977196
 20
65.4767899839
 10
-944.3762701956
 20
65.6246640825
 10
-944.3991668302
 20
65.7649059695
 10
-944.4258795706
 20
65.8965616186
 10
-944.4592704961
 20
66.0205850561
 10
-944.4964775273
 20
66.136976282
 10
-944.5384546908
 20
66.2457352964
 10
-944.58424796
 20
66.3459080729
 10
-944.633857335
 20
66.4394026642
 10
-944.6872828158
 20
66.525265044
 10
-944.7445244023
 20
66.6034952123
 10
-944.8065361211
 20
66.674093169
 10
-944.8714099191
 20
66.7370589142
 10
-944.940099823
 20
66.7923924479
 10
-945.0841578158
 20
66.8830249599
 10
-945.2310778879
 20
66.9488527844
 10
-945.3827680922
 20
66.9870138421
 10
-945.5382744023
 20
67.0003702123
 10
-945.5382744023
 20
67.0003702123
 10
-945.6956887653
 20
66.9870138421
 10
-945.8492870225
 20
66.9488527844
 10
-945.9971611211
 20
66.8830249599
 10
-946.1412191138
 20
66.7923924479
 10
-946.2099090177
 20
66.7380129407
 10
-946.2738287893
 20
66.6769552484
 10
-946.3339324552
 20
66.609219371
 10
-946.3892659888
 20
66.5357593349
 10
-946.4407834167
 20
66.4565751402
 10
-946.4884847388
 20
66.3707127604
 10
-946.5314159287
 20
66.2791262219
 10
-946.5705310129
 20
66.1808614984
 10
-946.6048759648
 20
66.0740105368
 10
-946.6344507845
 20
65.9547572315
 10
-946.6602094985
 20
65.8240556089
 10
-946.6802440537
 20
65.6799976162
 10
-946.6964625033
 20
65.5244913061
 10
-946.7079108206
 20
65.3575366787
 10
-946.7155430321
 20
65.1772256811
 10
-946.717451085
 20
64.9854663662
  0
LWPOLYLINE
  5
F1
330
1F
100
AcDbEntity
  8
0
  6
Continuous
 62
     7
100
AcDbPolyline
 90
       20
 70
   128
 43
0.0
 10
-603.1274795532
 20
64.6712311584
 10
-603.0697367677
 20
64.6712311584
 10
-603.0697367677
 20
64.6712311584
 10
-603.0697367677
 20
62.4731542353
 10
-603.0697367677
 20
62.4731542353
 10
-602.7033906138
 20
62.4731542353
 10
-602.7033906138
 20
62.4731542353
 10
-602.7033906138
 20
62.1475132097
 10
-602.7033906138
 20
62.1475132097
 10
-603.0697367677
 20
62.1475132097
 10
-603.0697367677
 20
62.1475132097
 10
-603.0697367677
 20
61.414820902
 10
-603.0697367677
 20
61.414820902
 10
-603.3546726651
 20
61.414820902
 10
-603.3546726651
 20
61.414820902
 10
-603.3546726651
 20
62.1475132097
 10
-603.3546726651
 20
62.1475132097
 10
-604.8607624087
 20
62.1475132097
 10
-604.8607624087
 20
62.1475132097
 10
-603.1276143719
 20
64.6712311584
  0
LWPOLYLINE
  5
F2
330
1F
100
AcDbEntity
  8
0
  6
Continuous
 62
     7
100
AcDbPolyline
 90
        6
 70
   128
 43
0.0
 10
-603.3544540405
 20
62.4731542353
 10
-603.3546726651
 20
63.8520404533
 10
-603.3546726651
 20
63.8520404533
 10
-604.3010668959
 20
62.4731542353
 10
-604.3010668959
 20
62.4731542353
 10
-603.3546726651
 20
62.4731542353
  0
LWPOLYLINE
  5
F3
330
1F
100
AcDbEntity
  8
0
  6
Continuous
 62
     7
100
AcDbPolyline
 90
       65
 70
   128
 43
0.0
 10
-601.7260551453
 20
61.3334106456
 10
-601.9541618478
 20
61.491779035
 10
-601.9541618478
 20
61.491779035
 10
-601.0713693799
 20
62.7822588026
 10
-601.0713693799
 20
62.7822588026
 10
-601.240550069
 20
62.764450309
 10
-601.4052786347
 20
62.7580901328
 10
-601.4052786347
 20
62.7580901328
 10
-601.5051334023
 20
62.7625422562
 10
-601.6005360465
 20
62.7752626087
 10
-601.6927586026
 20
62.7962511904
 10
-601.7805290353
 20
62.826144019
 10
-601.8651193799
 20
62.8643050767
 10
-601.945257601
 20
62.9107343635
 10
-602.022215734
 20
62.9660678972
 10
-602.0947217437
 20
63.02966966
 10
-602.160867577
 20
63.0996315991
 10
-602.2187451812
 20
63.173409644
 10
-602.2670825209
 20
63.2510037946
 10
-602.3071516315
 20
63.3330500687
 10
-602.3376804776
 20
63.4182764308
 10
-602.3599410946
 20
63.5079549164
 10
-602.3732974648
 20
63.6014495078
 10
-602.3777495882
 20
63.6987602049
 10
-602.3777495882
 20
63.6987602049
 10
-602.369481359
 20
63.8316878892
 10
-602.3453126892
 20
63.9576193796
 10
-602.304607561
 20
64.0771906937
 10
-602.248001992
 20
64.1897658138
 10
-602.1761320001
 20
64.2940727049
 10
-602.0909056379
 20
64.3869312786
 10
-601.9916868879
 20
64.4689775526
 10
-601.8791117677
 20
64.540211527
 10
-601.7576324007
 20
64.5974531135
 10
-601.6317009103
 20
64.6387942594
 10
-601.5013172965
 20
64.6629629292
 10
-601.367117577
 20
64.6712311584
 10
-601.367117577
 20
64.6712311584
 10
-601.2354619279
 20
64.6629629292
 10
-601.1088944199
 20
64.639430277
 10
-600.9874150529
 20
64.5993611664
 10
-600.871023827
 20
64.5433916151
 10
-600.7629008302
 20
64.4727936584
 10
-600.667498186
 20
64.3901113667
 10
-600.5841798767
 20
64.2940727049
 10
-600.5129459023
 20
64.1853136904
 10
-600.4563403334
 20
64.0689224645
 10
-600.4156352052
 20
63.9480791151
 10
-600.3914665353
 20
63.8240556776
 10
-600.3831983062
 20
63.6955801167
 10
-600.3831983062
 20
63.6955801167
 10
-600.3882864472
 20
63.5957253491
 10
-600.4029148526
 20
63.4939625286
 10
-600.4283555578
 20
63.3890196199
 10
-600.4633365273
 20
63.2821686584
 10
-600.4849611267
 20
63.2268351247
 10
-600.5110378494
 20
63.1689575206
 10
-600.5409306779
 20
63.1078998283
 10
-600.5746396122
 20
63.0449340831
 10
-600.6121646523
 20
62.9781522321
 10
-600.6535057981
 20
62.9094623283
 10
-600.6992990674
 20
62.8375923363
 10
-600.7489084424
 20
62.7631782738
 10
-600.7489084424
 20
62.7631782738
 10
-601.7264675369
 20
61.3334106456
  0
LWPOLYLINE
  5
F4
330
1F
100
AcDbEntity
  8
0
  6
Continuous
 62
     7
100
AcDbPolyline
 90
       68
 70
   128
 43
0.0
 10
-601.3522148132
 20
63.0837311584
 10
-601.2768030738
 20
63.0869112465
 10
-601.2055690994
 20
63.0951794757
 10
-601.1375152132
 20
63.1098078812
 10
-601.0739134504
 20
63.1301604453
 10
-601.0134917757
 20
63.1556011504
 10
-600.9568862068
 20
63.1874020318
 10
-600.9047327613
 20
63.2249270719
 10
-600.8557594039
 20
63.2681762706
 10
-600.8118741876
 20
63.3158775927
 10
-600.7737131299
 20
63.3654869677
 10
-600.7412762308
 20
63.4176404132
 10
-600.7151995081
 20
63.4723379292
 10
-600.6942109263
 20
63.5295795158
 10
-600.6795825209
 20
63.5887291552
 10
-600.6713142917
 20
63.6504228651
 10
-600.6681342036
 20
63.7146606456
 10
-600.6681342036
 20
63.7146606456
 10
-600.6713142917
 20
63.778898426
 10
-600.6808545562
 20
63.840592136
 10
-600.6973910145
 20
63.8997417754
 10
-600.7202876491
 20
63.9569833619
 10
-600.74954446
 20
64.0110448603
 10
-600.7851614472
 20
64.0631983058
 10
-600.8277746283
 20
64.1134436985
 10
-600.8767479856
 20
64.1605090029
 10
-600.9301734664
 20
64.2037582017
 10
-600.9861430177
 20
64.2412832417
 10
-601.0452926571
 20
64.2730841231
 10
-601.106986367
 20
64.2991608459
 10
-601.1712241475
 20
64.31951341
 10
-601.2386420161
 20
64.3341418154
 10
-601.3086039552
 20
64.3424100446
 10
-601.3817459824
 20
64.3455901328
 10
-601.3817459824
 20
64.3455901328
 10
-601.454251992
 20
64.3424100446
 10
-601.5235779135
 20
64.3341418154
 10
-601.5903597645
 20
64.31951341
 10
-601.6545975449
 20
64.2991608459
 10
-601.7162912549
 20
64.2730841231
 10
-601.7754408943
 20
64.2412832417
 10
-601.8314104456
 20
64.2037582017
 10
-601.8848359263
 20
64.1605090029
 10
-601.9338092837
 20
64.1134436985
 10
-601.9757864472
 20
64.0631983058
 10
-602.0114034344
 20
64.0110448603
 10
-602.0406602453
 20
63.9569833619
 10
-602.0635568799
 20
63.8997417754
 10
-602.0800933382
 20
63.840592136
 10
-602.0896336026
 20
63.778898426
 10
-602.0928136908
 20
63.7146606456
 10
-602.0928136908
 20
63.7146606456
 10
-602.0896336026
 20
63.6504228651
 10
-602.0794573206
 20
63.5887291552
 10
-602.0622848446
 20
63.5295795158
 10
-602.0387521924
 20
63.4723379292
 10
-602.0082233462
 20
63.4176404132
 10
-601.9706983062
 20
63.3654869677
 10
-601.9268130898
 20
63.3158775927
 10
-601.8759316795
 20
63.2681762706
 10
-601.8205981459
 20
63.2249270719
 10
-601.7620845241
 20
63.1874020318
 10
-601.7003908142
 20
63.1556011504
 10
-601.6367890513
 20
63.1301604453
 10
-601.5700072004
 20
63.1098078812
 10
-601.5000452613
 20
63.0951794757
 10
-601.4275392517
 20
63.0869112465
 10
-601.3524891715
 20
63.0837311584
  0
LWPOLYLINE
  5
F5
330
1F
100
AcDbEntity
  8
0
  6
Continuous
 62
     7
100
AcDbPolyline
 90
       12
 70
   128
 43
0.0
 10
-599.6909141541
 20
64.589820902
 10
-599.4062752292
 20
64.589820902
 10
-599.4062752292
 20
64.589820902
 10
-599.4062752292
 20
61.7404619276
 10
-599.4062752292
 20
61.7404619276
 10
-598.1851213831
 20
61.7404619276
 10
-598.1851213831
 20
61.7404619276
 10
-598.1851213831
 20
61.414820902
 10
-598.1851213831
 20
61.414820902
 10
-599.6912111267
 20
61.414820902
 10
-599.6912111267
 20
61.414820902
 10
-599.6912111267
 20
64.589820902
  0
LWPOLYLINE
  5
F6
330
1F
100
AcDbEntity
  8
0
  6
Continuous
 62
     7
100
AcDbPolyline
 90
       12
 70
   128
 43
0.0
 10
-597.7373123169
 20
64.589820902
 10
-595.783518819
 20
64.589820902
 10
-595.783518819
 20
64.589820902
 10
-597.4524290754
 20
61.3334106456
 10
-597.4524290754
 20
61.3334106456
 10
-597.6985678975
 20
61.4688824004
 10
-597.6985678975
 20
61.4688824004
 10
-596.2656201812
 20
64.2641798763
 10
-596.2656201812
 20
64.2641798763
 10
-597.7373649728
 20
64.2641798763
 10
-597.7373649728
 20
64.2641798763
 10
-597.7373649728
 20
64.589820902
  0
LWPOLYLINE
  5
F7
330
1F
100
AcDbEntity
  8
0
  6
Continuous
 62
     7
100
AcDbPolyline
 90
       24
 70
   128
 43
0.0
 10
-595.4370498657
 20
64.589820902
 10
-595.1087041154
 20
64.589820902
 10
-595.1087041154
 20
64.589820902
 10
-594.2774290754
 20
63.2910729052
 10
-594.2774290754
 20
63.2910729052
 10
-593.4461540353
 20
64.589820902
 10
-593.4461540353
 20
64.589820902
 10
-593.1173329215
 20
64.589820902
 10
-593.1173329215
 20
64.589820902
 10
-594.1127005097
 20
63.0341217834
 10
-594.1127005097
 20
63.0341217834
 10
-593.0766277933
 20
61.414820902
 10
-593.0766277933
 20
61.414820902
 10
-593.4054489071
 20
61.414820902
 10
-593.4054489071
 20
61.414820902
 10
-594.2774290754
 20
62.7771706616
 10
-594.2774290754
 20
62.7771706616
 10
-595.1494092437
 20
61.414820902
 10
-595.1494092437
 20
61.414820902
 10
-595.4782303574
 20
61.414820902
 10
-595.4782303574
 20
61.414820902
 10
-594.4415216235
 20
63.0341217834
 10
-594.4415216235
 20
63.0341217834
 10
-595.4375252292
 20
64.589820902
  0
LWPOLYLINE
  5
F8
330
1F
100
AcDbEntity
  8
0
  6
Continuous
 62
     7
100
AcDbPolyline
 90
       12
 70
   128
 43
0.0
 10
-592.1368598938
 20
64.589820902
 10
-591.5501854856
 20
64.589820902
 10
-591.5501854856
 20
64.589820902
 10
-591.5501854856
 20
61.414820902
 10
-591.5501854856
 20
61.414820902
 10
-591.8351213831
 20
61.414820902
 10
-591.8351213831
 20
61.414820902
 10
-591.8351213831
 20
64.2641798763
 10
-591.8351213831
 20
64.2641798763
 10
-592.3235829215
 20
64.2641798763
 10
-592.3235829215
 20
64.2641798763
 10
-592.1372297565
 20
64.589820902
  0
LWPOLYLINE
  5
F9
330
1F
100
AcDbEntity
  8
0
  6
Continuous
 62
     7
100
AcDbPolyline
 90
      106
 70
   128
 43
0.0
 10
-589.9624824524
 20
63.6128978251
 10
-590.2476213831
 20
63.6128978251
 10
-590.2476213831
 20
63.6128978251
 10
-590.2399891715
 20
63.7261089629
 10
-590.2234527132
 20
63.8342319597
 10
-590.1986480257
 20
63.9366307978
 10
-590.1643030738
 20
64.0345775126
 10
-590.1216898927
 20
64.1268000687
 10
-590.0701724648
 20
64.2145705013
 10
-590.0097507901
 20
64.2966167754
 10
-589.9404248687
 20
64.3735749084
 10
-589.8647387709
 20
64.4435368475
 10
-589.7839645321
 20
64.5039585222
 10
-589.6993741876
 20
64.5548399324
 10
-589.6109677372
 20
64.5968170959
 10
-589.5174731459
 20
64.6292539949
 10
-589.4201624488
 20
64.6527866472
 10
-589.3183996283
 20
64.666779035
 10
-589.2121846844
 20
64.6712311584
 10
-589.2121846844
 20
64.6712311584
 10
-589.1078777933
 20
64.666779035
 10
-589.0080230257
 20
64.6534226648
 10
-588.9138924167
 20
64.6317980654
 10
-588.8242139312
 20
64.6012692193
 10
-588.7402596042
 20
64.5612001087
 10
-588.6613934183
 20
64.512862769
 10
-588.5869793558
 20
64.4562572001
 10
-588.518289452
 20
64.3901113667
 10
-588.4559597244
 20
64.3182413747
 10
-588.4025342437
 20
64.2431912946
 10
-588.3567409744
 20
64.1649611263
 10
-588.3192159344
 20
64.0841868876
 10
-588.2905951411
 20
63.999596543
 10
-588.2696065594
 20
63.9118261103
 10
-588.2575222244
 20
63.8215116071
 10
-588.253070101
 20
63.7273809981
 10
-588.253070101
 20
63.7273809981
 10
-588.2613383302
 20
63.5950893315
 10
-588.2861430177
 20
63.4672497882
 10
-588.3268481459
 20
63.3438623683
 10
-588.3847257501
 20
63.2242910542
 10
-588.4216147725
 20
63.1632333619
 10
-588.4661360065
 20
63.096451511
 10
-588.518289452
 20
63.024581519
 10
-588.578075109
 20
62.9482594036
 10
-588.6461289953
 20
62.8655771119
 10
-588.7211790754
 20
62.7784426969
 10
-588.8044973847
 20
62.6862201408
 10
-588.8954479055
 20
62.588273426
 10
-588.8954479055
 20
62.588273426
 10
-589.6898339231
 20
61.7404619276
 10
-589.6898339231
 20
61.7404619276
 10
-588.2123649728
 20
61.7404619276
 10
-588.2123649728
 20
61.7404619276
 10
-588.2123649728
 20
61.414820902
 10
-588.2123649728
 20
61.414820902
 10
-590.3697367677
 20
61.414820902
 10
-590.3697367677
 20
61.414820902
 10
-589.1384066395
 20
62.7288333219
 10
-589.1384066395
 20
62.7288333219
 10
-589.0487281539
 20
62.8229639308
 10
-588.9673178975
 20
62.9107343635
 10
-588.8941758703
 20
62.9921446199
 10
-588.8293020722
 20
63.0671947001
 10
-588.7726965033
 20
63.1365206215
 10
-588.7237231459
 20
63.1988503491
 10
-588.6836540353
 20
63.255455918
 10
-588.6512171363
 20
63.3057013106
 10
-588.6016077613
 20
63.4011039549
 10
-588.5659907741
 20
63.4990506696
 10
-588.5450021924
 20
63.5989054372
 10
-588.5380059985
 20
63.701940293
 10
-588.5380059985
 20
63.701940293
 10
-588.5411860866
 20
63.7668140911
 10
-588.550726351
 20
63.8291438187
 10
-588.5659907741
 20
63.8889294757
 10
-588.5876153735
 20
63.9468070799
 10
-588.6162361667
 20
64.0027766312
 10
-588.6505811187
 20
64.0555660943
 10
-588.6906502292
 20
64.1064475046
 10
-588.7377155337
 20
64.1554208619
 10
-588.7892329616
 20
64.1999420959
 10
-588.84329446
 20
64.2387391712
 10
-588.8999000289
 20
64.2711760703
 10
-588.959685686
 20
64.2978888106
 10
-589.0226514312
 20
64.3188773924
 10
-589.0875252292
 20
64.3335057978
 10
-589.1555791154
 20
64.3424100446
 10
-589.2268130898
 20
64.3455901328
 10
-589.2268130898
 20
64.3455901328
 10
-589.3012271523
 20
64.3424100446
 10
-589.3724611267
 20
64.3335057978
 10
-589.4405150129
 20
64.3182413747
 10
-589.505388811
 20
64.297252793
 10
-589.5670825209
 20
64.2705400526
 10
-589.6255961427
 20
64.237467136
 10
-589.6809296763
 20
64.198034043
 10
-589.7330831219
 20
64.1528767914
 10
-589.780784444
 20
64.1026313988
 10
-589.8227616074
 20
64.0472978651
 10
-589.8596506299
 20
63.9868761904
 10
-589.8914515113
 20
63.9220023924
 10
-589.917528234
 20
63.8520404533
 10
-589.9378807981
 20
63.7769903731
 10
-589.9531452212
 20
63.6974881696
 10
-589.9626854856
 20
63.6128978251
  0
LWPOLYLINE
  5
FA
330
1F
100
AcDbEntity
  8
0
  6
Continuous
 62
     7
100
AcDbPolyline
 90
       20
 70
   128
 43
0.0
 10
-795.6223487854
 20
-331.7507116401
 10
-795.5649405624
 20
-331.7507116401
 10
-795.5649405624
 20
-331.7507116401
 10
-795.5649405624
 20
-333.9487885632
 10
-795.5649405624
 20
-333.9487885632
 10
-795.1985944085
 20
-333.9487885632
 10
-795.1985944085
 20
-333.9487885632
 10
-795.1985944085
 20
-334.2744295888
 10
-795.1985944085
 20
-334.2744295888
 10
-795.5649405624
 20
-334.2744295888
 10
-795.5649405624
 20
-334.2744295888
 10
-795.5649405624
 20
-335.0071218965
 10
-795.5649405624
 20
-335.0071218965
 10
-795.8498764598
 20
-335.0071218965
 10
-795.8498764598
 20
-335.0071218965
 10
-795.8498764598
 20
-334.2744295888
 10
-795.8498764598
 20
-334.2744295888
 10
-797.3559662034
 20
-334.2744295888
 10
-797.3559662034
 20
-334.2744295888
 10
-795.6228181665
 20
-331.7507116401
  0
LWPOLYLINE
  5
FB
330
1F
100
AcDbEntity
  8
0
  6
Continuous
 62
     7
100
AcDbPolyline
 90
        6
 70
   128
 43
0.0
 10
-795.8498001099
 20
-333.9487885632
 10
-795.8498764598
 20
-332.5699023452
 10
-795.8498764598
 20
-332.5699023452
 10
-796.7962706906
 20
-333.9487885632
 10
-796.7962706906
 20
-333.9487885632
 10
-795.8498764598
 20
-333.9487885632
  0
LWPOLYLINE
  5
FC
330
1F
100
AcDbEntity
  8
0
  6
Continuous
 62
     7
100
AcDbPolyline
 90
       65
 70
   128
 43
0.0
 10
-794.2214012146
 20
-335.0885321529
 10
-794.4493656425
 20
-334.9301637635
 10
-794.4493656425
 20
-334.9301637635
 10
-793.5665731746
 20
-333.6396839959
 10
-793.5665731746
 20
-333.6396839959
 10
-793.7357538637
 20
-333.6574924894
 10
-793.9004824294
 20
-333.6638526657
 10
-793.9004824294
 20
-333.6638526657
 10
-794.000337197
 20
-333.6594005423
 10
-794.0957398412
 20
-333.6466801898
 10
-794.1879623973
 20
-333.625691608
 10
-794.27573283
 20
-333.5957987795
 10
-794.3603231746
 20
-333.5576377218
 10
-794.4404613957
 20
-333.511208435
 10
-794.5174195287
 20
-333.4558749013
 10
-794.5899255383
 20
-333.3922731385
 10
-794.6560713717
 20
-333.3223111994
 10
-794.7139489758
 20
-333.2485331545
 10
-794.7622863156
 20
-333.1709390039
 10
-794.8023554262
 20
-333.0888927298
 10
-794.8328842723
 20
-333.0036663676
 10
-794.8551448893
 20
-332.9139878821
 10
-794.8685012595
 20
-332.8204932907
 10
-794.8729533829
 20
-332.7231825936
 10
-794.8729533829
 20
-332.7231825936
 10
-794.8646851537
 20
-332.5902549093
 10
-794.8405164839
 20
-332.4643234189
 10
-794.7998113556
 20
-332.3447521048
 10
-794.7432057867
 20
-332.2321769846
 10
-794.6713357947
 20
-332.1278700936
 10
-794.5861094326
 20
-332.0350115199
 10
-794.4868906826
 20
-331.9529652459
 10
-794.3743155624
 20
-331.8817312715
 10
-794.2528361954
 20
-331.824489685
 10
-794.126904705
 20
-331.7831485391
 10
-793.9965210912
 20
-331.7589798692
 10
-793.8623213717
 20
-331.7507116401
 10
-793.8623213717
 20
-331.7507116401
 10
-793.7306657226
 20
-331.7589798692
 10
-793.6040982146
 20
-331.7825125215
 10
-793.4826188476
 20
-331.8225816321
 10
-793.3662276217
 20
-331.8785511834
 10
-793.2581046249
 20
-331.9491491401
 10
-793.1627019806
 20
-332.0318314317
 10
-793.0793836714
 20
-332.1278700936
 10
-793.008149697
 20
-332.236629108
 10
-792.9515441281
 20
-332.353020334
 10
-792.9108389999
 20
-332.4738636834
 10
-792.88667033
 20
-332.5978871209
 10
-792.8784021008
 20
-332.7263626817
 10
-792.8784021008
 20
-332.7263626817
 10
-792.8834902419
 20
-332.8262174494
 10
-792.8981186473
 20
-332.9279802699
 10
-792.9235593524
 20
-333.0329231785
 10
-792.958540322
 20
-333.1397741401
 10
-792.9801649214
 20
-333.1951076737
 10
-793.0062416441
 20
-333.2529852779
 10
-793.0361344726
 20
-333.3140429702
 10
-793.0698434069
 20
-333.3770087154
 10
-793.107368447
 20
-333.4437905664
 10
-793.1487095928
 20
-333.5124804702
 10
-793.1945028621
 20
-333.5843504622
 10
-793.2441122371
 20
-333.6587645247
 10
-793.2441122371
 20
-333.6587645247
 10
-794.2216713316
 20
-335.0885321529
  0
LWPOLYLINE
  5
FD
330
1F
100
AcDbEntity
  8
0
  6
Continuous
 62
     7
100
AcDbPolyline
 90
       68
 70
   128
 43
0.0
 10
-793.8475608826
 20
-333.3382116401
 10
-793.7720068685
 20
-333.3350315519
 10
-793.7007728941
 20
-333.3267633228
 10
-793.6327190079
 20
-333.3121349173
 10
-793.5691172451
 20
-333.2917823532
 10
-793.5086955704
 20
-333.2663416481
 10
-793.4520900015
 20
-333.2345407667
 10
-793.399936556
 20
-333.1970157266
 10
-793.3509631986
 20
-333.1537665279
 10
-793.3070779822
 20
-333.1060652058
 10
-793.2689169246
 20
-333.0564558308
 10
-793.2364800255
 20
-333.0043023853
 10
-793.2104033028
 20
-332.9496048692
 10
-793.189414721
 20
-332.8923632827
 10
-793.1747863156
 20
-332.8332136433
 10
-793.1665180864
 20
-332.7715199334
 10
-793.1633379983
 20
-332.7072821529
 10
-793.1633379983
 20
-332.7072821529
 10
-793.1665180864
 20
-332.6430443725
 10
-793.1760583508
 20
-332.5813506625
 10
-793.1925948092
 20
-332.5222010231
 10
-793.2154914438
 20
-332.4649594366
 10
-793.2447482547
 20
-332.4108979382
 10
-793.2803652419
 20
-332.3587444926
 10
-793.322978423
 20
-332.3084991
 10
-793.3719517803
 20
-332.2614337955
 10
-793.4253772611
 20
-332.2181845968
 10
-793.4813468124
 20
-332.1806595567
 10
-793.5404964518
 20
-332.1488586753
 10
-793.6021901617
 20
-332.1227819526
 10
-793.6664279422
 20
-332.1024293885
 10
-793.7338458108
 20
-332.087800983
 10
-793.8038077499
 20
-332.0795327539
 10
-793.8769497771
 20
-332.0763526657
 10
-793.8769497771
 20
-332.0763526657
 10
-793.9494557867
 20
-332.0795327539
 10
-794.0187817082
 20
-332.087800983
 10
-794.0855635592
 20
-332.1024293885
 10
-794.1498013396
 20
-332.1227819526
 10
-794.2114950496
 20
-332.1488586753
 10
-794.270644689
 20
-332.1806595567
 10
-794.3266142403
 20
-332.2181845968
 10
-794.380039721
 20
-332.2614337955
 10
-794.4290130784
 20
-332.3084991
 10
-794.4709902419
 20
-332.3587444926
 10
-794.506607229
 20
-332.4108979382
 10
-794.5358640399
 20
-332.4649594366
 10
-794.5587606746
 20
-332.5222010231
 10
-794.5752971329
 20
-332.5813506625
 10
-794.5848373973
 20
-332.6430443725
 10
-794.5880174855
 20
-332.7072821529
 10
-794.5880174855
 20
-332.7072821529
 10
-794.5848373973
 20
-332.7715199334
 10
-794.5746611153
 20
-332.8332136433
 10
-794.5574886393
 20
-332.8923632827
 10
-794.5339559871
 20
-332.9496048692
 10
-794.5034271409
 20
-333.0043023853
 10
-794.4659021008
 20
-333.0564558308
 10
-794.4220168845
 20
-333.1060652058
 10
-794.3711354742
 20
-333.1537665279
 10
-794.3158019406
 20
-333.1970157266
 10
-794.2572883188
 20
-333.2345407667
 10
-794.1955946089
 20
-333.2663416481
 10
-794.131992846
 20
-333.2917823532
 10
-794.0652109951
 20
-333.3121349173
 10
-793.995249056
 20
-333.3267633228
 10
-793.9227430464
 20
-333.3350315519
 10
-793.8476929662
 20
-333.3382116401
  0
LWPOLYLINE
  5
FE
330
1F
100
AcDbEntity
  8
0
  6
Continuous
 62
     7
100
AcDbPolyline
 90
       12
 70
   128
 43
0.0
 10
-792.1862602234
 20
-331.8321218965
 10
-791.9014790239
 20
-331.8321218965
 10
-791.9014790239
 20
-331.8321218965
 10
-791.9014790239
 20
-334.6814808709
 10
-791.9014790239
 20
-334.6814808709
 10
-790.6803251778
 20
-334.6814808709
 10
-790.6803251778
 20
-334.6814808709
 10
-790.6803251778
 20
-335.0071218965
 10
-790.6803251778
 20
-335.0071218965
 10
-792.1864149214
 20
-335.0071218965
 10
-792.1864149214
 20
-335.0071218965
 10
-792.1864149214
 20
-331.8321218965
  0
LWPOLYLINE
  5
FF
330
1F
100
AcDbEntity
  8
0
  6
Continuous
 62
     7
100
AcDbPolyline
 90
       12
 70
   128
 43
0.0
 10
-790.2321815491
 20
-331.8321218965
 10
-788.2787226137
 20
-331.8321218965
 10
-788.2787226137
 20
-331.8321218965
 10
-789.9476328701
 20
-335.0885321529
 10
-789.9476328701
 20
-335.0885321529
 10
-790.1937716922
 20
-334.9530603981
 10
-790.1937716922
 20
-334.9530603981
 10
-788.7608239758
 20
-332.1577629221
 10
-788.7608239758
 20
-332.1577629221
 10
-790.2325687675
 20
-332.1577629221
 10
-790.2325687675
 20
-332.1577629221
 10
-790.2325687675
 20
-331.8321218965
  0
LWPOLYLINE
  5
100
330
1F
100
AcDbEntity
  8
0
  6
Continuous
 62
     7
100
AcDbPolyline
 90
       24
 70
   128
 43
0.0
 10
-787.9323959351
 20
-331.8321218965
 10
-787.6039079101
 20
-331.8321218965
 10
-787.6039079101
 20
-331.8321218965
 10
-786.7726328701
 20
-333.1308698933
 10
-786.7726328701
 20
-333.1308698933
 10
-785.94135783
 20
-331.8321218965
 10
-785.94135783
 20
-331.8321218965
 10
-785.6125367162
 20
-331.8321218965
 10
-785.6125367162
 20
-331.8321218965
 10
-786.6079043044
 20
-333.3878210151
 10
-786.6079043044
 20
-333.3878210151
 10
-785.571831588
 20
-335.0071218965
 10
-785.571831588
 20
-335.0071218965
 10
-785.9006527018
 20
-335.0071218965
 10
-785.9006527018
 20
-335.0071218965
 10
-786.7726328701
 20
-333.6447721369
 10
-786.7726328701
 20
-333.6447721369
 10
-787.6446130383
 20
-335.0071218965
 10
-787.6446130383
 20
-335.0071218965
 10
-787.9734341521
 20
-335.0071218965
 10
-787.9734341521
 20
-335.0071218965
 10
-786.9367254181
 20
-333.3878210151
 10
-786.9367254181
 20
-333.3878210151
 10
-787.9327290239
 20
-331.8321218965
  0
LWPOLYLINE
  5
101
330
1F
100
AcDbEntity
  8
0
  6
Continuous
 62
     7
100
AcDbPolyline
 90
       12
 70
   128
 43
0.0
 10
-784.6322059631
 20
-331.8321218965
 10
-784.0453892803
 20
-331.8321218965
 10
-784.0453892803
 20
-331.8321218965
 10
-784.0453892803
 20
-335.0071218965
 10
-784.0453892803
 20
-335.0071218965
 10
-784.3303251778
 20
-335.0071218965
 10
-784.3303251778
 20
-335.0071218965
 10
-784.3303251778
 20
-332.1577629221
 10
-784.3303251778
 20
-332.1577629221
 10
-784.8187867162
 20
-332.1577629221
 10
-784.8187867162
 20
-332.1577629221
 10
-784.6324335512
 20
-331.8321218965
  0
LWPOLYLINE
  5
102
330
1F
100
AcDbEntity
  8
0
  6
Continuous
 62
     7
100
AcDbPolyline
 90
      132
 70
   128
 43
0.0
 10
-780.8699607849
 20
-331.8321218965
 10
-780.8703892803
 20
-332.1577629221
 10
-780.8703892803
 20
-332.1577629221
 10
-781.950347213
 20
-332.1577629221
 10
-781.950347213
 20
-332.1577629221
 10
-782.121435955
 20
-332.992854068
 10
-782.121435955
 20
-332.992854068
 10
-782.0203091521
 20
-332.9661413276
 10
-781.9242704903
 20
-332.9464247811
 10
-781.8333199694
 20
-332.9349764638
 10
-781.7474575896
 20
-332.931160358
 10
-781.7474575896
 20
-332.931160358
 10
-781.6412426457
 20
-332.9356124814
 10
-781.5394798252
 20
-332.9496048692
 10
-781.4428051457
 20
-332.9725015039
 10
-781.3505825896
 20
-333.0043023853
 10
-781.2634481746
 20
-333.0450075135
 10
-781.1814019005
 20
-333.0952529061
 10
-781.1038077499
 20
-333.1544025455
 10
-781.0306657226
 20
-333.2230924494
 10
-780.9645198893
 20
-333.2987785471
 10
-780.9072783028
 20
-333.3789167683
 10
-780.8583049454
 20
-333.4647791481
 10
-780.8188718524
 20
-333.5550936513
 10
-780.7877069887
 20
-333.6511323132
 10
-780.7660823893
 20
-333.752259116
 10
-780.7527260191
 20
-333.85847406
 10
-780.7482738957
 20
-333.9697771449
 10
-780.7482738957
 20
-333.9697771449
 10
-780.7508179662
 20
-334.0473712955
 10
-780.7571781425
 20
-334.1236934109
 10
-780.7686264598
 20
-334.1981074734
 10
-780.7845269005
 20
-334.2712495007
 10
-780.8048794646
 20
-334.342483475
 10
-780.8296841521
 20
-334.4118093965
 10
-780.8595769806
 20
-334.4798632827
 10
-780.8932859149
 20
-334.5466451337
 10
-780.930810955
 20
-334.6102468965
 10
-780.9721521008
 20
-334.6700325535
 10
-781.0160373172
 20
-334.7260021048
 10
-781.0631026217
 20
-334.7781555503
 10
-781.1139840319
 20
-334.8264928901
 10
-781.1680455303
 20
-334.8710141241
 10
-781.2246510992
 20
-334.9117192523
 10
-781.2850727739
 20
-334.9486082747
 10
-781.3480385191
 20
-334.9816811914
 10
-781.4135483348
 20
-335.009665967
 10
-781.4809662034
 20
-335.0338346369
 10
-781.5509281425
 20
-335.0535511834
 10
-781.6234341521
 20
-335.0688156064
 10
-781.6984842322
 20
-335.0796279061
 10
-781.7760783829
 20
-335.0866241
 10
-781.8555805864
 20
-335.0885321529
 10
-781.8555805864
 20
-335.0885321529
 10
-781.950347213
 20
-335.0847160471
 10
-782.0412977339
 20
-335.0726317122
 10
-782.1284321489
 20
-335.0535511834
 10
-782.2117504582
 20
-335.0262024253
 10
-782.2912526617
 20
-334.9912214558
 10
-782.3669387595
 20
-334.9479722571
 10
-782.4394447691
 20
-334.8977268644
 10
-782.5074986553
 20
-334.8392132426
 10
-782.5704644005
 20
-334.7743394446
 10
-782.6264339518
 20
-334.7050135231
 10
-782.6760433268
 20
-334.6312354782
 10
-782.7192925255
 20
-334.5523692923
 10
-782.7555455303
 20
-334.4696870007
 10
-782.7848023412
 20
-334.381916568
 10
-782.8076989758
 20
-334.2896940119
 10
-782.8242354342
 20
-334.1930193324
 10
-782.8242354342
 20
-334.1930193324
 10
-782.5392995367
 20
-334.1930193324
 10
-782.5392995367
 20
-334.1930193324
 10
-782.5164029021
 20
-334.2833338356
 10
-782.4871460912
 20
-334.3641080744
 10
-782.4508930864
 20
-334.436614084
 10
-782.4082799053
 20
-334.5002158468
 10
-782.3580345127
 20
-334.5561853981
 10
-782.3001569085
 20
-334.6064307907
 10
-782.2346470928
 20
-334.6515880423
 10
-782.1615050656
 20
-334.6903851176
 10
-782.0839109149
 20
-334.7221859991
 10
-782.0037726938
 20
-334.744446616
 10
-781.9223624374
 20
-334.7584390039
 10
-781.8390441281
 20
-334.7628911273
 10
-781.8390441281
 20
-334.7628911273
 10
-781.7576338717
 20
-334.7590750215
 10
-781.6794037034
 20
-334.7482627218
 10
-781.6037176056
 20
-334.7304542282
 10
-781.531211596
 20
-334.7050135231
 10
-781.4618856746
 20
-334.6732126417
 10
-781.3951038236
 20
-334.6331435311
 10
-781.3315020608
 20
-334.5867142442
 10
-781.2704443685
 20
-334.5326527459
 10
-781.2151108348
 20
-334.4735031064
 10
-781.1667734951
 20
-334.4105373612
 10
-781.1260683669
 20
-334.3437555103
 10
-781.0923594326
 20
-334.2737935712
 10
-781.0662827098
 20
-334.2000155263
 10
-781.0478381986
 20
-334.1230573933
 10
-781.0370258989
 20
-334.0422831545
 10
-781.0332097931
 20
-333.95769281
 10
-781.0332097931
 20
-333.95769281
 10
-781.0363898813
 20
-333.8813706946
 10
-781.0459301457
 20
-333.808864685
 10
-781.062466604
 20
-333.7401747811
 10
-781.0853632387
 20
-333.675300983
 10
-781.1146200496
 20
-333.6136072731
 10
-781.1502370367
 20
-333.5557296689
 10
-781.1928502178
 20
-333.5016681705
 10
-781.2418235752
 20
-333.4514227779
 10
-781.2958850736
 20
-333.4056295087
 10
-781.355034713
 20
-333.3661964157
 10
-781.4180004582
 20
-333.3331234991
 10
-781.4854183268
 20
-333.3051387234
 10
-781.5572883188
 20
-333.2841501417
 10
-781.6336104342
 20
-333.2688857186
 10
-781.7137486553
 20
-333.2599814718
 10
-781.7989750175
 20
-333.2568013837
 10
-781.7989750175
 20
-333.2568013837
 10
-781.8727530624
 20
-333.2593454542
 10
-781.9509832306
 20
-333.2669776657
 10
-782.0323934871
 20
-333.2796980183
 10
-782.1182558669
 20
-333.2975065119
 10
-782.2072983348
 20
-333.3204031465
 10
-782.3007929262
 20
-333.3483879221
 10
-782.3974676056
 20
-333.3814608388
 10
-782.4985944085
 20
-333.4196218965
 10
-782.4985944085
 20
-333.4196218965
 10
-782.1729533829
 20
-331.8321218965
 10
-782.1729533829
 20
-331.8321218965
 10
-780.8703892803
 20
-331.8321218965
  0
LWPOLYLINE
  5
103
330
1F
100
AcDbEntity
  8
0
  6
Continuous
 62
     7
100
AcDbPolyline
 90
       20
 70
   128
 43
0.0
 10
-1313.3211135864
 20
-340.3900179879
 10
-1313.263769676
 20
-340.3900179879
 10
-1313.263769676
 20
-340.3900179879
 10
-1313.263769676
 20
-342.588094911
 10
-1313.263769676
 20
-342.588094911
 10
-1312.8974235221
 20
-342.588094911
 10
-1312.8974235221
 20
-342.588094911
 10
-1312.8974235221
 20
-342.9137359366
 10
-1312.8974235221
 20
-342.9137359366
 10
-1313.263769676
 20
-342.9137359366
 10
-1313.263769676
 20
-342.9137359366
 10
-1313.263769676
 20
-343.6464282443
 10
-1313.263769676
 20
-343.6464282443
 10
-1313.5487055734
 20
-343.6464282443
 10
-1313.5487055734
 20
-343.6464282443
 10
-1313.5487055734
 20
-342.9137359366
 10
-1313.5487055734
 20
-342.9137359366
 10
-1315.054795317
 20
-342.9137359366
 10
-1315.054795317
 20
-342.9137359366
 10
-1313.3216472801
 20
-340.3900179879
  0
LWPOLYLINE
  5
104
330
1F
100
AcDbEntity
  8
0
  6
Continuous
 62
     7
100
AcDbPolyline
 90
        6
 70
   128
 43
0.0
 10
-1313.5480880737
 20
-342.588094911
 10
-1313.5487055734
 20
-341.2092086931
 10
-1313.5487055734
 20
-341.2092086931
 10
-1314.4950998042
 20
-342.588094911
 10
-1314.4950998042
 20
-342.588094911
 10
-1313.5487055734
 20
-342.588094911
  0
LWPOLYLINE
  5
105
330
1F
100
AcDbEntity
  8
0
  6
Continuous
 62
     7
100
AcDbPolyline
 90
       65
 70
   128
 43
0.0
 10
-1311.9201660156
 20
-343.7278385007
 10
-1312.1481947561
 20
-343.5694701113
 10
-1312.1481947561
 20
-343.5694701113
 10
-1311.2654022882
 20
-342.2789903437
 10
-1311.2654022882
 20
-342.2789903437
 10
-1311.4345829773
 20
-342.2967988373
 10
-1311.599311543
 20
-342.3031590136
 10
-1311.599311543
 20
-342.3031590136
 10
-1311.6991663106
 20
-342.2987068902
 10
-1311.7945689548
 20
-342.2859865376
 10
-1311.8867915109
 20
-342.2649979559
 10
-1311.9745619436
 20
-342.2351051273
 10
-1312.0591522882
 20
-342.1969440697
 10
-1312.1392905093
 20
-342.1505147828
 10
-1312.2162486423
 20
-342.0951812491
 10
-1312.2887546519
 20
-342.0315794863
 10
-1312.3549004853
 20
-341.9616175472
 10
-1312.4127780894
 20
-341.8878395023
 10
-1312.4611154292
 20
-341.8102453517
 10
-1312.5011845398
 20
-341.7281990777
 10
-1312.5317133859
 20
-341.6429727155
 10
-1312.5539740029
 20
-341.5532942299
 10
-1312.5673303731
 20
-341.4597996386
 10
-1312.5717824965
 20
-341.3624889415
 10
-1312.5717824965
 20
-341.3624889415
 10
-1312.5635142673
 20
-341.2295612572
 10
-1312.5393455974
 20
-341.1036297668
 10
-1312.4986404692
 20
-340.9840584527
 10
-1312.4420349003
 20
-340.8714833325
 10
-1312.3701649083
 20
-340.7671764415
 10
-1312.2849385462
 20
-340.6743178677
 10
-1312.1857197962
 20
-340.5922715937
 10
-1312.073144676
 20
-340.5210376193
 10
-1311.951665309
 20
-340.4637960328
 10
-1311.8257338186
 20
-340.422454887
 10
-1311.6953502048
 20
-340.3982862171
 10
-1311.5611504853
 20
-340.3900179879
 10
-1311.5611504853
 20
-340.3900179879
 10
-1311.4294948362
 20
-340.3982862171
 10
-1311.3029273282
 20
-340.4218188693
 10
-1311.1814479612
 20
-340.4618879799
 10
-1311.0650567353
 20
-340.5178575312
 10
-1310.9569337385
 20
-340.5884554879
 10
-1310.8615310942
 20
-340.6711377796
 10
-1310.7782127849
 20
-340.7671764415
 10
-1310.7069788106
 20
-340.8759354559
 10
-1310.6503732417
 20
-340.9923266818
 10
-1310.6096681135
 20
-341.1131700312
 10
-1310.5854994436
 20
-341.2371934687
 10
-1310.5772312144
 20
-341.3656690296
 10
-1310.5772312144
 20
-341.3656690296
 10
-1310.5823193555
 20
-341.4655237972
 10
-1310.5969477609
 20
-341.5672866177
 10
-1310.622388466
 20
-341.6722295264
 10
-1310.6573694356
 20
-341.7790804879
 10
-1310.6789940349
 20
-341.8344140216
 10
-1310.7050707577
 20
-341.8922916257
 10
-1310.7349635862
 20
-341.9533493181
 10
-1310.7686725205
 20
-342.0163150632
 10
-1310.8061975606
 20
-342.0830969142
 10
-1310.8475387064
 20
-342.1517868181
 10
-1310.8933319757
 20
-342.22365681
 10
-1310.9429413507
 20
-342.2980708725
 10
-1310.9429413507
 20
-342.2980708725
 10
-1311.9205004452
 20
-343.7278385007
  0
LWPOLYLINE
  5
106
330
1F
100
AcDbEntity
  8
0
  6
Continuous
 62
     7
100
AcDbPolyline
 90
       68
 70
   128
 43
0.0
 10
-1311.5463256836
 20
-341.9775179879
 10
-1311.4708359821
 20
-341.9743378998
 10
-1311.3996020077
 20
-341.9660696706
 10
-1311.3315481215
 20
-341.9514412652
 10
-1311.2679463587
 20
-341.9310887011
 10
-1311.207524684
 20
-341.9056479959
 10
-1311.1509191151
 20
-341.8738471145
 10
-1311.0987656696
 20
-341.8363220745
 10
-1311.0497923122
 20
-341.7930728757
 10
-1311.0059070958
 20
-341.7453715536
 10
-1310.9677460382
 20
-341.6957621786
 10
-1310.9353091391
 20
-341.6436087331
 10
-1310.9092324164
 20
-341.5889112171
 10
-1310.8882438346
 20
-341.5316696306
 10
-1310.8736154292
 20
-341.4725199911
 10
-1310.8653472
 20
-341.4108262812
 10
-1310.8621671119
 20
-341.3465885007
 10
-1310.8621671119
 20
-341.3465885007
 10
-1310.8653472
 20
-341.2823507203
 10
-1310.8748874644
 20
-341.2206570104
 10
-1310.8914239228
 20
-341.1615073709
 10
-1310.9143205574
 20
-341.1042657844
 10
-1310.9435773683
 20
-341.050204286
 10
-1310.9791943555
 20
-340.9980508405
 10
-1311.0218075365
 20
-340.9478054479
 10
-1311.0707808939
 20
-340.9007401434
 10
-1311.1242063747
 20
-340.8574909447
 10
-1311.180175926
 20
-340.8199659046
 10
-1311.2393255654
 20
-340.7881650232
 10
-1311.3010192753
 20
-340.7620883004
 10
-1311.3652570558
 20
-340.7417357363
 10
-1311.4326749244
 20
-340.7271073309
 10
-1311.5026368635
 20
-340.7188391017
 10
-1311.5757788907
 20
-340.7156590136
 10
-1311.5757788907
 20
-340.7156590136
 10
-1311.6482849003
 20
-340.7188391017
 10
-1311.7176108218
 20
-340.7271073309
 10
-1311.7843926728
 20
-340.7417357363
 10
-1311.8486304532
 20
-340.7620883004
 10
-1311.9103241632
 20
-340.7881650232
 10
-1311.9694738026
 20
-340.8199659046
 10
-1312.0254433539
 20
-340.8574909447
 10
-1312.0788688346
 20
-340.9007401434
 10
-1312.127842192
 20
-340.9478054479
 10
-1312.1698193555
 20
-340.9980508405
 10
-1312.2054363426
 20
-341.050204286
 10
-1312.2346931535
 20
-341.1042657844
 10
-1312.2575897882
 20
-341.1615073709
 10
-1312.2741262465
 20
-341.2206570104
 10
-1312.2836665109
 20
-341.2823507203
 10
-1312.286846599
 20
-341.3465885007
 10
-1312.286846599
 20
-341.3465885007
 10
-1312.2836665109
 20
-341.4108262812
 10
-1312.2734902289
 20
-341.4725199911
 10
-1312.2563177529
 20
-341.5316696306
 10
-1312.2327851007
 20
-341.5889112171
 10
-1312.2022562545
 20
-341.6436087331
 10
-1312.1647312144
 20
-341.6957621786
 10
-1312.1208459981
 20
-341.7453715536
 10
-1312.0699645878
 20
-341.7930728757
 10
-1312.0146310542
 20
-341.8363220745
 10
-1311.9561174324
 20
-341.8738471145
 10
-1311.8944237224
 20
-341.9056479959
 10
-1311.8308219596
 20
-341.9310887011
 10
-1311.7640401087
 20
-341.9514412652
 10
-1311.6940781696
 20
-341.9660696706
 10
-1311.6215721599
 20
-341.9743378998
 10
-1311.5465220798
 20
-341.9775179879
  0
LWPOLYLINE
  5
107
330
1F
100
AcDbEntity
  8
0
  6
Continuous
 62
     7
100
AcDbPolyline
 90
       12
 70
   128
 43
0.0
 10
-1309.8850250244
 20
-340.4714282443
 10
-1309.6003081375
 20
-340.4714282443
 10
-1309.6003081375
 20
-340.4714282443
 10
-1309.6003081375
 20
-343.3207872187
 10
-1309.6003081375
 20
-343.3207872187
 10
-1308.3791542914
 20
-343.3207872187
 10
-1308.3791542914
 20
-343.3207872187
 10
-1308.3791542914
 20
-343.6464282443
 10
-1308.3791542914
 20
-343.6464282443
 10
-1309.8852440349
 20
-343.6464282443
 10
-1309.8852440349
 20
-343.6464282443
 10
-1309.8852440349
 20
-340.4714282443
  0
LWPOLYLINE
  5
108
330
1F
100
AcDbEntity
  8
0
  6
Continuous
 62
     7
100
AcDbPolyline
 90
       12
 70
   128
 43
0.0
 10
-1307.9309463501
 20
-340.4714282443
 10
-1305.9775517273
 20
-340.4714282443
 10
-1305.9775517273
 20
-340.4714282443
 10
-1307.6464619837
 20
-343.7278385007
 10
-1307.6464619837
 20
-343.7278385007
 10
-1307.8926008058
 20
-343.5923667459
 10
-1307.8926008058
 20
-343.5923667459
 10
-1306.4596530894
 20
-340.79706927
 10
-1306.4596530894
 20
-340.79706927
 10
-1307.9313978811
 20
-340.79706927
 10
-1307.9313978811
 20
-340.79706927
 10
-1307.9313978811
 20
-340.4714282443
  0
LWPOLYLINE
  5
109
330
1F
100
AcDbEntity
  8
0
  6
Continuous
 62
     7
100
AcDbPolyline
 90
       24
 70
   128
 43
0.0
 10
-1305.6306838989
 20
-340.4714282443
 10
-1305.3027370237
 20
-340.4714282443
 10
-1305.3027370237
 20
-340.4714282443
 10
-1304.4714619837
 20
-341.7701762411
 10
-1304.4714619837
 20
-341.7701762411
 10
-1303.6401869436
 20
-340.4714282443
 10
-1303.6401869436
 20
-340.4714282443
 10
-1303.3113658298
 20
-340.4714282443
 10
-1303.3113658298
 20
-340.4714282443
 10
-1304.306733418
 20
-342.0271273629
 10
-1304.306733418
 20
-342.0271273629
 10
-1303.2706607016
 20
-343.6464282443
 10
-1303.2706607016
 20
-343.6464282443
 10
-1303.5994818154
 20
-343.6464282443
 10
-1303.5994818154
 20
-343.6464282443
 10
-1304.4714619837
 20
-342.2840784847
 10
-1304.4714619837
 20
-342.2840784847
 10
-1305.3434421519
 20
-343.6464282443
 10
-1305.3434421519
 20
-343.6464282443
 10
-1305.6722632657
 20
-343.6464282443
 10
-1305.6722632657
 20
-343.6464282443
 10
-1304.6355545317
 20
-342.0271273629
 10
-1304.6355545317
 20
-342.0271273629
 10
-1305.6315581375
 20
-340.4714282443
  0
LWPOLYLINE
  5
10A
330
1F
100
AcDbEntity
  8
0
  6
Continuous
 62
     7
100
AcDbPolyline
 90
       12
 70
   128
 43
0.0
 10
-1302.3309707642
 20
-340.4714282443
 10
-1301.7442183939
 20
-340.4714282443
 10
-1301.7442183939
 20
-340.4714282443
 10
-1301.7442183939
 20
-343.6464282443
 10
-1301.7442183939
 20
-343.6464282443
 10
-1302.0291542914
 20
-343.6464282443
 10
-1302.0291542914
 20
-343.6464282443
 10
-1302.0291542914
 20
-340.79706927
 10
-1302.0291542914
 20
-340.79706927
 10
-1302.5176158298
 20
-340.79706927
 10
-1302.5176158298
 20
-340.79706927
 10
-1302.3312626648
 20
-340.4714282443
  0
LWPOLYLINE
  5
10B
330
1F
100
AcDbEntity
  8
0
  6
Continuous
 62
     7
100
AcDbPolyline
 90
      113
 70
   128
 43
0.0
 10
-1299.0198135376
 20
-341.8776632203
 10
-1298.9425607417
 20
-341.9190043661
 10
-1298.8706907497
 20
-341.9616175472
 10
-1298.8045449164
 20
-342.0061387812
 10
-1298.743487224
 20
-342.0512960328
 10
-1298.6875176728
 20
-342.0983613373
 10
-1298.6372722801
 20
-342.1473346947
 10
-1298.5927510462
 20
-342.1969440697
 10
-1298.5533179532
 20
-342.2484614975
 10
-1298.5189730013
 20
-342.3012509607
 10
-1298.4890801728
 20
-342.3559484767
 10
-1298.4636394676
 20
-342.4125540456
 10
-1298.4432869035
 20
-342.4704316498
 10
-1298.4267504452
 20
-342.5308533245
 10
-1298.4153021279
 20
-342.5925470344
 10
-1298.4089419516
 20
-342.6561487972
 10
-1298.4063978811
 20
-342.7216586129
 10
-1298.4063978811
 20
-342.7216586129
 10
-1298.4102139869
 20
-342.8132451514
 10
-1298.4216623042
 20
-342.9022876193
 10
-1298.4401068154
 20
-342.9887860168
 10
-1298.4661835382
 20
-343.0721043261
 10
-1298.5005284901
 20
-343.1535145825
 10
-1298.5418696359
 20
-343.2311087331
 10
-1298.5902069757
 20
-343.3067948309
 10
-1298.6468125446
 20
-343.3793008405
 10
-1298.6468125446
 20
-343.3793008405
 10
-1298.7244066952
 20
-343.4607110969
 10
-1298.8096330574
 20
-343.5319450713
 10
-1298.9031276487
 20
-343.5917307283
 10
-1299.0048904692
 20
-343.6407040857
 10
-1299.1142855013
 20
-343.6788651434
 10
-1299.2313127449
 20
-343.7062139014
 10
-1299.3566082176
 20
-343.7221143421
 10
-1299.4895359019
 20
-343.7278385007
 10
-1299.4895359019
 20
-343.7278385007
 10
-1299.6173754452
 20
-343.7227503597
 10
-1299.7375827769
 20
-343.7087579719
 10
-1299.8501578971
 20
-343.684589302
 10
-1299.9538287705
 20
-343.6515163854
 10
-1300.05050345
 20
-343.6082671866
 10
-1300.1382738827
 20
-343.5554777235
 10
-1300.2184121039
 20
-343.4937840136
 10
-1300.2909181135
 20
-343.4219140216
 10
-1300.3551558939
 20
-343.3443198709
 10
-1300.4104894276
 20
-343.2648176674
 10
-1300.4569187144
 20
-343.183407411
 10
-1300.4957157898
 20
-343.1000891017
 10
-1300.5256086183
 20
-343.0148627395
 10
-1300.5465972
 20
-342.9277283245
 10
-1300.5593175526
 20
-342.8386858565
 10
-1300.563769676
 20
-342.7477353357
 10
-1300.563769676
 20
-342.7477353357
 10
-1300.5612256055
 20
-342.6809534847
 10
-1300.5542294116
 20
-342.6160796866
 10
-1300.5427810942
 20
-342.5531139415
 10
-1300.5268806535
 20
-342.4914202315
 10
-1300.5058920718
 20
-342.4316345745
 10
-1300.4804513667
 20
-342.3737569703
 10
-1300.4505585382
 20
-342.3171514014
 10
-1300.4162135862
 20
-342.2624538854
 10
-1300.3761444757
 20
-342.2090284046
 10
-1300.330987224
 20
-342.1575109767
 10
-1300.2794697962
 20
-342.1072655841
 10
-1300.2222282096
 20
-342.0582922267
 10
-1300.1598984821
 20
-342.0105909046
 10
-1300.0912085782
 20
-341.9647976354
 10
-1300.0174305333
 20
-341.9202764014
 10
-1299.9372923122
 20
-341.8776632203
 10
-1299.9372923122
 20
-341.8776632203
 10
-1300.0460513266
 20
-341.8146974751
 10
-1300.1401819356
 20
-341.7440995184
 10
-1300.2196841391
 20
-341.6671413854
 10
-1300.2851939548
 20
-341.5825510408
 10
-1300.3360753651
 20
-341.4928725552
 10
-1300.3716923523
 20
-341.4000139815
 10
-1300.3939529692
 20
-341.3039753197
 10
-1300.4009491632
 20
-341.2047565697
 10
-1300.4009491632
 20
-341.2047565697
 10
-1300.3933169516
 20
-341.1036297668
 10
-1300.370420317
 20
-341.0037749991
 10
-1300.3316232417
 20
-340.9045562491
 10
-1300.2781977609
 20
-340.807245552
 10
-1300.2107798923
 20
-340.7150229959
 10
-1300.1319137064
 20
-340.6336127395
 10
-1300.0415992032
 20
-340.5623787652
 10
-1299.9392003651
 20
-340.5013210729
 10
-1299.8285332978
 20
-340.4523477155
 10
-1299.7134141071
 20
-340.4180027636
 10
-1299.5944788106
 20
-340.3970141818
 10
-1299.4704553731
 20
-340.3900179879
 10
-1299.4704553731
 20
-340.3900179879
 10
-1299.3496120237
 20
-340.3970141818
 10
-1299.2338568154
 20
-340.4180027636
 10
-1299.1225537305
 20
-340.4536197507
 10
-1299.0157027689
 20
-340.5025931081
 10
-1298.9164840189
 20
-340.5636508004
 10
-1298.8293496039
 20
-340.6355207924
 10
-1298.7530274885
 20
-340.7169310488
 10
-1298.6881536904
 20
-340.8085175873
 10
-1298.6360002449
 20
-340.9058282844
 10
-1298.5991112224
 20
-341.0063190697
 10
-1298.5768506055
 20
-341.1087179078
 10
-1298.5692183939
 20
-341.2136608165
 10
-1298.5692183939
 20
-341.2136608165
 10
-1298.5762145878
 20
-341.3166956722
 10
-1298.5972031696
 20
-341.4140063693
 10
-1298.6328201567
 20
-341.5055929078
 10
-1298.6817935141
 20
-341.5914552876
 10
-1298.7453952769
 20
-341.6715935088
 10
-1298.8223534099
 20
-341.7453715536
 10
-1298.914575966
 20
-341.8146974751
 10
-1299.0201548923
 20
-341.8776632203
  0
LWPOLYLINE
  5
10C
330
1F
100
AcDbEntity
  8
0
  6
Continuous
 62
     7
100
AcDbPolyline
 90
       64
 70
   128
 43
0.0
 10
-1299.4861602783
 20
-340.7156590136
 10
-1299.5531376648
 20
-340.7182030841
 10
-1299.6167394276
 20
-340.7245632604
 10
-1299.6771611023
 20
-340.7360115777
 10
-1299.7350387064
 20
-340.7519120184
 10
-1299.7903722401
 20
-340.7729006001
 10
-1299.841889668
 20
-340.7977052876
 10
-1299.8908630253
 20
-340.8275981161
 10
-1299.9372923122
 20
-340.8619430681
 10
-1299.9792694757
 20
-340.8994681081
 10
-1300.0155224805
 20
-340.9382651834
 10
-1300.0460513266
 20
-340.9789703116
 10
-1300.0714920317
 20
-341.0215834927
 10
-1300.0905725606
 20
-341.0661047267
 10
-1300.1045649484
 20
-341.1118979959
 10
-1300.1134691952
 20
-341.1595993181
 10
-1300.1160132657
 20
-341.2092086931
 10
-1300.1160132657
 20
-341.2092086931
 10
-1300.1128331776
 20
-341.2588180681
 10
-1300.1039289308
 20
-341.3065193902
 10
-1300.0893005253
 20
-341.3535846947
 10
-1300.067675926
 20
-341.3993779639
 10
-1300.0409631856
 20
-341.4438991979
 10
-1300.0078902689
 20
-341.4877844142
 10
-1299.9690931936
 20
-341.5297615777
 10
-1299.923935942
 20
-341.5711027235
 10
-1299.8749625846
 20
-341.6092637812
 10
-1299.8234451567
 20
-341.6423366979
 10
-1299.7706556936
 20
-341.6696854559
 10
-1299.7153221599
 20
-341.6925820905
 10
-1299.6580805734
 20
-341.7103905841
 10
-1299.598930934
 20
-341.7231109366
 10
-1299.5378732417
 20
-341.7307431482
 10
-1299.4749074965
 20
-341.7332872187
 10
-1299.4749074965
 20
-341.7332872187
 10
-1299.3941332577
 20
-341.7288350953
 10
-1299.3152670718
 20
-341.7148427075
 10
-1299.2389449564
 20
-341.6919460729
 10
-1299.1645308939
 20
-341.6601451915
 10
-1299.0952049724
 20
-341.6200760809
 10
-1299.0341472801
 20
-341.5730107764
 10
-1298.981357817
 20
-341.5195852956
 10
-1298.9362005654
 20
-341.4591636209
 10
-1298.9005835782
 20
-341.3949258405
 10
-1298.8745068555
 20
-341.3313240777
 10
-1298.8592424324
 20
-341.2670862972
 10
-1298.8541542914
 20
-341.2028485168
 10
-1298.8541542914
 20
-341.2028485168
 10
-1298.8566983619
 20
-341.1576912652
 10
-1298.8643305734
 20
-341.1138060488
 10
-1298.877050926
 20
-341.0711928677
 10
-1298.8948594196
 20
-341.0285796866
 10
-1298.9177560542
 20
-340.9872385408
 10
-1298.9451048122
 20
-340.9471694302
 10
-1298.9781777289
 20
-340.9077363373
 10
-1299.0163387865
 20
-340.868939262
 10
-1299.0589519676
 20
-340.8333222748
 10
-1299.1060172721
 20
-340.802157411
 10
-1299.1581707176
 20
-340.7754446706
 10
-1299.2147762866
 20
-340.7538200713
 10
-1299.2758339789
 20
-340.7372836129
 10
-1299.3413437946
 20
-340.725199278
 10
-1299.4113057337
 20
-340.7182030841
 10
-1299.4863558138
 20
-340.7156590136
  0
LWPOLYLINE
  5
10D
330
1F
100
AcDbEntity
  8
0
  6
Continuous
 62
     7
100
AcDbPolyline
 90
       64
 70
   128
 43
0.0
 10
-1299.467086792
 20
-342.0589282443
 10
-1299.5525016471
 20
-342.0621083325
 10
-1299.6332758859
 20
-342.0722846145
 10
-1299.7108700365
 20
-342.0881850552
 10
-1299.7846480814
 20
-342.1110816898
 10
-1299.8552460382
 20
-342.1409745184
 10
-1299.9226639067
 20
-342.1772275232
 10
-1299.9862656696
 20
-342.2198407043
 10
-1300.0460513266
 20
-342.2688140616
 10
-1300.1007488426
 20
-342.3222395424
 10
-1300.1478141471
 20
-342.3775730761
 10
-1300.1878832577
 20
-342.4354506802
 10
-1300.2203201567
 20
-342.4952363373
 10
-1300.2463968795
 20
-342.5575660648
 10
-1300.2642053731
 20
-342.6218038453
 10
-1300.2750176728
 20
-342.6885856963
 10
-1300.2788337785
 20
-342.7572756001
 10
-1300.2788337785
 20
-342.7572756001
 10
-1300.2724736023
 20
-342.8425019623
 10
-1300.254029091
 20
-342.9245482363
 10
-1300.2228642273
 20
-343.0053224751
 10
-1300.1796150285
 20
-343.0829166257
 10
-1300.1249175125
 20
-343.1554226354
 10
-1300.0600437144
 20
-343.2183883806
 10
-1299.9856296519
 20
-343.2737219142
 10
-1299.9010393074
 20
-343.3195151834
 10
-1299.807544716
 20
-343.3557681882
 10
-1299.7076899484
 20
-343.3812088934
 10
-1299.6002029692
 20
-343.3971093341
 10
-1299.4863558138
 20
-343.4021974751
 10
-1299.4863558138
 20
-343.4021974751
 10
-1299.3973133458
 20
-343.399017387
 10
-1299.3133590189
 20
-343.3894771225
 10
-1299.2338568154
 20
-343.3735766818
 10
-1299.1594427529
 20
-343.3513160648
 10
-1299.0894808138
 20
-343.3233312892
 10
-1299.0239709981
 20
-343.2883503197
 10
-1298.9629133058
 20
-343.2476451915
 10
-1298.9069437545
 20
-343.1999438693
 10
-1298.8566983619
 20
-343.1484264415
 10
-1298.8128131455
 20
-343.0943649431
 10
-1298.7752881055
 20
-343.0383953918
 10
-1298.7453952769
 20
-342.9805177876
 10
-1298.7218626247
 20
-342.9207321306
 10
-1298.7046901487
 20
-342.858402403
 10
-1298.6945138667
 20
-342.7941646225
 10
-1298.6913337785
 20
-342.7273827716
 10
-1298.6913337785
 20
-342.7273827716
 10
-1298.6951498843
 20
-342.6625089735
 10
-1298.7053261664
 20
-342.6001792459
 10
-1298.7231346599
 20
-342.5391215536
 10
-1298.7479393474
 20
-342.4799719142
 10
-1298.7803762465
 20
-342.4227303277
 10
-1298.8191733218
 20
-342.367396794
 10
-1298.8656026087
 20
-342.3139713132
 10
-1298.9190280894
 20
-342.2624538854
 10
-1298.9775417112
 20
-342.2147525632
 10
-1299.0385994035
 20
-342.1734114174
 10
-1299.102837184
 20
-342.1384304479
 10
-1299.1702550526
 20
-342.1098096546
 10
-1299.2402169917
 20
-342.0875490376
 10
-1299.3133590189
 20
-342.0716485969
 10
-1299.3890451167
 20
-342.0621083325
 10
-1299.4679113026
 20
-342.0589282443
  0
LWPOLYLINE
  5
10E
330
1F
100
AcDbEntity
  8
0
  6
Continuous
 62
     7
100
AcDbPolyline
 90
       20
 70
   128
 43
0.0
 10
-1311.014175415
 20
66.4962724735
 10
-1310.9566092525
 20
66.4962724735
 10
-1310.9566092525
 20
66.4962724735
 10
-1310.9566092525
 20
64.2981955504
 10
-1310.9566092525
 20
64.2981955504
 10
-1310.5902630987
 20
64.2981955504
 10
-1310.5902630987
 20
64.2981955504
 10
-1310.5902630987
 20
63.9725545248
 10
-1310.5902630987
 20
63.9725545248
 10
-1310.9566092525
 20
63.9725545248
 10
-1310.9566092525
 20
63.9725545248
 10
-1310.9566092525
 20
63.2398622171
 10
-1310.9566092525
 20
63.2398622171
 10
-1311.2415451499
 20
63.2398622171
 10
-1311.2415451499
 20
63.2398622171
 10
-1311.2415451499
 20
63.9725545248
 10
-1311.2415451499
 20
63.9725545248
 10
-1312.7476348935
 20
63.9725545248
 10
-1312.7476348935
 20
63.9725545248
 10
-1311.0144868567
 20
66.4962724735
  0
LWPOLYLINE
  5
10F
330
1F
100
AcDbEntity
  8
0
  6
Continuous
 62
     7
100
AcDbPolyline
 90
        6
 70
   128
 43
0.0
 10
-1311.2411499023
 20
64.2981955504
 10
-1311.2415451499
 20
65.6770817684
 10
-1311.2415451499
 20
65.6770817684
 10
-1312.1879393807
 20
64.2981955504
 10
-1312.1879393807
 20
64.2981955504
 10
-1311.2415451499
 20
64.2981955504
  0
LWPOLYLINE
  5
110
330
1F
100
AcDbEntity
  8
0
  6
Continuous
 62
     7
100
AcDbPolyline
 90
       65
 70
   128
 43
0.0
 10
-1309.6132278442
 20
63.1584519607
 10
-1309.8410343326
 20
63.3168203501
 10
-1309.8410343326
 20
63.3168203501
 10
-1308.9582418647
 20
64.6073001177
 10
-1308.9582418647
 20
64.6073001177
 10
-1309.1274225538
 20
64.5894916241
 10
-1309.2921511195
 20
64.5831314478
 10
-1309.2921511195
 20
64.5831314478
 10
-1309.3920058871
 20
64.5875835712
 10
-1309.4874085314
 20
64.6003039238
 10
-1309.5796310874
 20
64.6212925055
 10
-1309.6674015201
 20
64.6511853341
 10
-1309.7519918647
 20
64.6893463917
 10
-1309.8321300858
 20
64.7357756786
 10
-1309.9090882189
 20
64.7911092123
 10
-1309.9815942285
 20
64.8547109751
 10
-1310.0477400618
 20
64.9246729142
 10
-1310.105617666
 20
64.9984509591
 10
-1310.1539550057
 20
65.0760451097
 10
-1310.1940241163
 20
65.1580913837
 10
-1310.2245529624
 20
65.2433177459
 10
-1310.2468135794
 20
65.3329962315
 10
-1310.2601699496
 20
65.4264908228
 10
-1310.264622073
 20
65.52380152
 10
-1310.264622073
 20
65.52380152
 10
-1310.2563538439
 20
65.6567292042
 10
-1310.232185174
 20
65.7826606946
 10
-1310.1914800458
 20
65.9022320087
 10
-1310.1348744769
 20
66.0148071289
 10
-1310.0630044849
 20
66.11911402
 10
-1309.9777781227
 20
66.2119725937
 10
-1309.8785593727
 20
66.2940188677
 10
-1309.7659842525
 20
66.3652528421
 10
-1309.6445048855
 20
66.4224944286
 10
-1309.5185733951
 20
66.4638355744
 10
-1309.3881897814
 20
66.4880042443
 10
-1309.2539900618
 20
66.4962724735
 10
-1309.2539900618
 20
66.4962724735
 10
-1309.1223344128
 20
66.4880042443
 10
-1308.9957669047
 20
66.4644715921
 10
-1308.8742875378
 20
66.4244024815
 10
-1308.7578963118
 20
66.3684329302
 10
-1308.649773315
 20
66.2978349735
 10
-1308.5543706708
 20
66.2151526818
 10
-1308.4710523615
 20
66.11911402
 10
-1308.3998183871
 20
66.0103550055
 10
-1308.3432128182
 20
65.8939637796
 10
-1308.30250769
 20
65.7731204302
 10
-1308.2783390201
 20
65.6490969927
 10
-1308.270070791
 20
65.5206214318
 10
-1308.270070791
 20
65.5206214318
 10
-1308.275158932
 20
65.4207666642
 10
-1308.2897873374
 20
65.3190038437
 10
-1308.3152280426
 20
65.214060935
 10
-1308.3502090121
 20
65.1072099735
 10
-1308.3718336115
 20
65.0518764398
 10
-1308.3979103342
 20
64.9939988357
 10
-1308.4278031628
 20
64.9329411434
 10
-1308.4615120971
 20
64.8699753982
 10
-1308.4990371371
 20
64.8031935472
 10
-1308.540378283
 20
64.7345036434
 10
-1308.5861715522
 20
64.6626336514
 10
-1308.6357809272
 20
64.5882195889
 10
-1308.6357809272
 20
64.5882195889
 10
-1309.6133400217
 20
63.1584519607
  0
LWPOLYLINE
  5
111
330
1F
100
AcDbEntity
  8
0
  6
Continuous
 62
     7
100
AcDbPolyline
 90
       68
 70
   128
 43
0.0
 10
-1309.2384338379
 20
64.9087724735
 10
-1309.1636755586
 20
64.9119525616
 10
-1309.0924415842
 20
64.9202207908
 10
-1309.024387698
 20
64.9348491962
 10
-1308.9607859352
 20
64.9552017603
 10
-1308.9003642605
 20
64.9806424655
 10
-1308.8437586916
 20
65.0124433469
 10
-1308.7916052461
 20
65.0499683869
 10
-1308.7426318887
 20
65.0932175857
 10
-1308.6987466724
 20
65.1409189078
 10
-1308.6605856147
 20
65.1905282828
 10
-1308.6281487156
 20
65.2426817283
 10
-1308.6020719929
 20
65.2973792443
 10
-1308.5810834112
 20
65.3546208309
 10
-1308.5664550057
 20
65.4137704703
 10
-1308.5581867765
 20
65.4754641802
 10
-1308.5550066884
 20
65.5397019607
 10
-1308.5550066884
 20
65.5397019607
 10
-1308.5581867765
 20
65.6039397411
 10
-1308.567727041
 20
65.665633451
 10
-1308.5842634993
 20
65.7247830905
 10
-1308.6071601339
 20
65.782024677
 10
-1308.6364169448
 20
65.8360861754
 10
-1308.672033932
 20
65.8882396209
 10
-1308.7146471131
 20
65.9384850135
 10
-1308.7636204705
 20
65.985550318
 10
-1308.8170459512
 20
66.0287995167
 10
-1308.8730155025
 20
66.0663245568
 10
-1308.9321651419
 20
66.0981254382
 10
-1308.9938588519
 20
66.124202161
 10
-1309.0580966323
 20
66.1445547251
 10
-1309.1255145009
 20
66.1591831305
 10
-1309.19547644
 20
66.1674513597
 10
-1309.2686184672
 20
66.1706314478
 10
-1309.2686184672
 20
66.1706314478
 10
-1309.3411244769
 20
66.1674513597
 10
-1309.4104503983
 20
66.1591831305
 10
-1309.4772322493
 20
66.1445547251
 10
-1309.5414700297
 20
66.124202161
 10
-1309.6031637397
 20
66.0981254382
 10
-1309.6623133791
 20
66.0663245568
 10
-1309.7182829304
 20
66.0287995167
 10
-1309.7717084112
 20
65.985550318
 10
-1309.8206817685
 20
65.9384850135
 10
-1309.862658932
 20
65.8882396209
 10
-1309.8982759192
 20
65.8360861754
 10
-1309.9275327301
 20
65.782024677
 10
-1309.9504293647
 20
65.7247830905
 10
-1309.966965823
 20
65.665633451
 10
-1309.9765060874
 20
65.6039397411
 10
-1309.9796861756
 20
65.5397019607
 10
-1309.9796861756
 20
65.5397019607
 10
-1309.9765060874
 20
65.4754641802
 10
-1309.9663298054
 20
65.4137704703
 10
-1309.9491573294
 20
65.3546208309
 10
-1309.9256246772
 20
65.2973792443
 10
-1309.895095831
 20
65.2426817283
 10
-1309.857570791
 20
65.1905282828
 10
-1309.8136855746
 20
65.1409189078
 10
-1309.7628041644
 20
65.0932175857
 10
-1309.7074706307
 20
65.0499683869
 10
-1309.6489570089
 20
65.0124433469
 10
-1309.587263299
 20
64.9806424655
 10
-1309.5236615362
 20
64.9552017603
 10
-1309.4568796852
 20
64.9348491962
 10
-1309.3869177461
 20
64.9202207908
 10
-1309.3144117365
 20
64.9119525616
 10
-1309.2393616564
 20
64.9087724735
  0
LWPOLYLINE
  5
112
330
1F
100
AcDbEntity
  8
0
  6
Continuous
 62
     7
100
AcDbPolyline
 90
       12
 70
   128
 43
0.0
 10
-1307.5771331787
 20
66.4148622171
 10
-1307.293147714
 20
66.4148622171
 10
-1307.293147714
 20
66.4148622171
 10
-1307.293147714
 20
63.5655032427
 10
-1307.293147714
 20
63.5655032427
 10
-1306.0719938679
 20
63.5655032427
 10
-1306.0719938679
 20
63.5655032427
 10
-1306.0719938679
 20
63.2398622171
 10
-1306.0719938679
 20
63.2398622171
 10
-1307.5780836115
 20
63.2398622171
 10
-1307.5780836115
 20
63.2398622171
 10
-1307.5780836115
 20
66.4148622171
  0
LWPOLYLINE
  5
113
330
1F
100
AcDbEntity
  8
0
  6
Continuous
 62
     7
100
AcDbPolyline
 90
       12
 70
   128
 43
0.0
 10
-1305.6240081787
 20
66.4148622171
 10
-1303.6703913038
 20
66.4148622171
 10
-1303.6703913038
 20
66.4148622171
 10
-1305.3393015602
 20
63.1584519607
 10
-1305.3393015602
 20
63.1584519607
 10
-1305.5854403823
 20
63.2939237155
 10
-1305.5854403823
 20
63.2939237155
 10
-1304.152492666
 20
66.0892211914
 10
-1304.152492666
 20
66.0892211914
 10
-1305.6242374576
 20
66.0892211914
 10
-1305.6242374576
 20
66.0892211914
 10
-1305.6242374576
 20
66.4148622171
  0
LWPOLYLINE
  5
114
330
1F
100
AcDbEntity
  8
0
  6
Continuous
 62
     7
100
AcDbPolyline
 90
       24
 70
   128
 43
0.0
 10
-1303.3237457275
 20
66.4148622171
 10
-1302.9955766003
 20
66.4148622171
 10
-1302.9955766003
 20
66.4148622171
 10
-1302.1643015602
 20
65.1161142203
 10
-1302.1643015602
 20
65.1161142203
 10
-1301.3330265201
 20
66.4148622171
 10
-1301.3330265201
 20
66.4148622171
 10
-1301.0042054064
 20
66.4148622171
 10
-1301.0042054064
 20
66.4148622171
 10
-1301.9995729945
 20
64.8591630985
 10
-1301.9995729945
 20
64.8591630985
 10
-1300.9635002781
 20
63.2398622171
 10
-1300.9635002781
 20
63.2398622171
 10
-1301.2923213919
 20
63.2398622171
 10
-1301.2923213919
 20
63.2398622171
 10
-1302.1643015602
 20
64.6022119767
 10
-1302.1643015602
 20
64.6022119767
 10
-1303.0362817285
 20
63.2398622171
 10
-1303.0362817285
 20
63.2398622171
 10
-1303.3651028422
 20
63.2398622171
 10
-1303.3651028422
 20
63.2398622171
 10
-1302.3283941083
 20
64.8591630985
 10
-1302.3283941083
 20
64.8591630985
 10
-1303.324397714
 20
66.4148622171
  0
LWPOLYLINE
  5
115
330
1F
100
AcDbEntity
  8
0
  6
Continuous
 62
     7
100
AcDbPolyline
 90
      113
 70
   128
 43
0.0
 10
-1299.1552352905
 20
65.0086272411
 10
-1299.0777080105
 20
64.9672860953
 10
-1299.0058380185
 20
64.9246729142
 10
-1298.9396921852
 20
64.8801516802
 10
-1298.8786344929
 20
64.8349944286
 10
-1298.8226649416
 20
64.7879291241
 10
-1298.772419549
 20
64.7389557667
 10
-1298.727898315
 20
64.6893463917
 10
-1298.6884652221
 20
64.6378289639
 10
-1298.6541202701
 20
64.5850395007
 10
-1298.6242274416
 20
64.5303419847
 10
-1298.5987867365
 20
64.4737364158
 10
-1298.5784341724
 20
64.4158588116
 10
-1298.561897714
 20
64.3554371369
 10
-1298.5504493967
 20
64.293743427
 10
-1298.5440892205
 20
64.2301416642
 10
-1298.5415451499
 20
64.1646318485
 10
-1298.5415451499
 20
64.1646318485
 10
-1298.5453612557
 20
64.07304531
 10
-1298.556809573
 20
63.9840028421
 10
-1298.5752540842
 20
63.8975044446
 10
-1298.601330807
 20
63.8141861353
 10
-1298.6356757589
 20
63.7327758789
 10
-1298.6770169047
 20
63.6551817283
 10
-1298.7253542445
 20
63.5794956305
 10
-1298.7819598134
 20
63.5069896209
 10
-1298.7819598134
 20
63.5069896209
 10
-1298.859553964
 20
63.4255793645
 10
-1298.9447803262
 20
63.3543453901
 10
-1299.0382749176
 20
63.2945597331
 10
-1299.1400377381
 20
63.2455863757
 10
-1299.2494327701
 20
63.207425318
 10
-1299.3664600137
 20
63.18007656
 10
-1299.4917554865
 20
63.1641761193
 10
-1299.6246831708
 20
63.1584519607
 10
-1299.6246831708
 20
63.1584519607
 10
-1299.752522714
 20
63.1635401017
 10
-1299.8727300458
 20
63.1775324895
 10
-1299.985305166
 20
63.2017011594
 10
-1300.0889760394
 20
63.234774076
 10
-1300.1856507189
 20
63.2780232748
 10
-1300.2734211515
 20
63.3308127379
 10
-1300.3535593727
 20
63.3925064478
 10
-1300.4260653823
 20
63.4643764398
 10
-1300.4903031628
 20
63.5419705905
 10
-1300.5456366964
 20
63.621472794
 10
-1300.5920659833
 20
63.7028830504
 10
-1300.6308630586
 20
63.7862013597
 10
-1300.6607558871
 20
63.8714277219
 10
-1300.6817444689
 20
63.9585621369
 10
-1300.6944648214
 20
64.0476046049
 10
-1300.6989169448
 20
64.1385551257
 10
-1300.6989169448
 20
64.1385551257
 10
-1300.6963728743
 20
64.2053369767
 10
-1300.6893766804
 20
64.2702107748
 10
-1300.6779283631
 20
64.33317652
 10
-1300.6620279224
 20
64.3948702299
 10
-1300.6410393406
 20
64.4546558869
 10
-1300.6155986355
 20
64.5125334911
 10
-1300.585705807
 20
64.56913906
 10
-1300.5513608551
 20
64.623836576
 10
-1300.5112917445
 20
64.6772620568
 10
-1300.4661344929
 20
64.7287794847
 10
-1300.414617065
 20
64.7790248773
 10
-1300.3573754785
 20
64.8279982347
 10
-1300.2950457509
 20
64.8756995568
 10
-1300.2263558471
 20
64.921492826
 10
-1300.1525778022
 20
64.96601406
 10
-1300.072439581
 20
65.0086272411
 10
-1300.072439581
 20
65.0086272411
 10
-1300.1811985955
 20
65.0715929863
 10
-1300.2753292044
 20
65.142190943
 10
-1300.354831408
 20
65.219149076
 10
-1300.4203412237
 20
65.3037394206
 10
-1300.4712226339
 20
65.3934179062
 10
-1300.5068396211
 20
65.4862764799
 10
-1300.5291002381
 20
65.5823151417
 10
-1300.536096432
 20
65.6815338917
 10
-1300.536096432
 20
65.6815338917
 10
-1300.5284642205
 20
65.7826606946
 10
-1300.5055675858
 20
65.8825154623
 10
-1300.4667705105
 20
65.9817342123
 10
-1300.4133450297
 20
66.0790449094
 10
-1300.3459271612
 20
66.1712674655
 10
-1300.2670609753
 20
66.2526777219
 10
-1300.1767464721
 20
66.3239116962
 10
-1300.0743476339
 20
66.3849693885
 10
-1299.9636805666
 20
66.4339427459
 10
-1299.8485613759
 20
66.4682876978
 10
-1299.7296260794
 20
66.4892762796
 10
-1299.6056026419
 20
66.4962724735
 10
-1299.6056026419
 20
66.4962724735
 10
-1299.4847592926
 20
66.4892762796
 10
-1299.3690040842
 20
66.4682876978
 10
-1299.2577009993
 20
66.4326707107
 10
-1299.1508500378
 20
66.3836973533
 10
-1299.0516312878
 20
66.322639661
 10
-1298.9644968727
 20
66.250769669
 10
-1298.8881747573
 20
66.1693594126
 10
-1298.8233009592
 20
66.0777728741
 10
-1298.7711475137
 20
65.980462177
 10
-1298.7342584913
 20
65.8799713917
 10
-1298.7119978743
 20
65.7775725536
 10
-1298.7043656628
 20
65.672629645
 10
-1298.7043656628
 20
65.672629645
 10
-1298.7113618567
 20
65.5695947892
 10
-1298.7323504384
 20
65.4722840921
 10
-1298.7679674256
 20
65.3806975536
 10
-1298.816940783
 20
65.2948351738
 10
-1298.8805425458
 20
65.2146969526
 10
-1298.9575006788
 20
65.1409189078
 10
-1299.0497232349
 20
65.0715929863
 10
-1299.1553021612
 20
65.0086272411
  0
LWPOLYLINE
  5
116
330
1F
100
AcDbEntity
  8
0
  6
Continuous
 62
     7
100
AcDbPolyline
 90
       64
 70
   128
 43
0.0
 10
-1299.6206283569
 20
66.1706314478
 10
-1299.6882849336
 20
66.1680873773
 10
-1299.7518866964
 20
66.161727201
 10
-1299.8123083711
 20
66.1502788837
 10
-1299.8701859753
 20
66.134378443
 10
-1299.9255195089
 20
66.1133898613
 10
-1299.9770369368
 20
66.0885851738
 10
-1300.0260102942
 20
66.0586923453
 10
-1300.072439581
 20
66.0243473934
 10
-1300.1144167445
 20
65.9868223533
 10
-1300.1506697493
 20
65.948025278
 10
-1300.1811985955
 20
65.9073201498
 10
-1300.2066393006
 20
65.8647069687
 10
-1300.2257198294
 20
65.8201857347
 10
-1300.2397122172
 20
65.7743924655
 10
-1300.248616464
 20
65.7266911434
 10
-1300.2511605346
 20
65.6770817684
 10
-1300.2511605346
 20
65.6770817684
 10
-1300.2479804464
 20
65.6274723934
 10
-1300.2390761996
 20
65.5797710712
 10
-1300.2244477942
 20
65.5327057667
 10
-1300.2028231948
 20
65.4869124975
 10
-1300.1761104544
 20
65.4423912635
 10
-1300.1430375378
 20
65.3985060472
 10
-1300.1042404624
 20
65.3565288837
 10
-1300.0590832108
 20
65.3151877379
 10
-1300.0101098535
 20
65.2770266802
 10
-1299.9585924256
 20
65.2439537635
 10
-1299.9058029624
 20
65.2166050055
 10
-1299.8504694288
 20
65.1937083709
 10
-1299.7932278422
 20
65.1758998773
 10
-1299.7340782028
 20
65.1631795248
 10
-1299.6730205105
 20
65.1555473132
 10
-1299.6100547653
 20
65.1530032427
 10
-1299.6100547653
 20
65.1530032427
 10
-1299.5292805265
 20
65.1574553661
 10
-1299.4504143406
 20
65.1714477539
 10
-1299.3740922253
 20
65.1943443885
 10
-1299.2996781628
 20
65.22614527
 10
-1299.2303522413
 20
65.2662143805
 10
-1299.169294549
 20
65.313279685
 10
-1299.1165050858
 20
65.3667051658
 10
-1299.0713478342
 20
65.4271268405
 10
-1299.0357308471
 20
65.4913646209
 10
-1299.0096541243
 20
65.5549663837
 10
-1298.9943897012
 20
65.6192041642
 10
-1298.9893015602
 20
65.6834419446
 10
-1298.9893015602
 20
65.6834419446
 10
-1298.9918456307
 20
65.7285991962
 10
-1298.9994778422
 20
65.7724844126
 10
-1299.0121981948
 20
65.8150975937
 10
-1299.0300066884
 20
65.8577107748
 10
-1299.052903323
 20
65.8990519206
 10
-1299.080252081
 20
65.9391210312
 10
-1299.1133249977
 20
65.9785541241
 10
-1299.1514860554
 20
66.0173511994
 10
-1299.1940992365
 20
66.0529681866
 10
-1299.241164541
 20
66.0841330504
 10
-1299.2933179865
 20
66.1108457908
 10
-1299.3499235554
 20
66.1324703901
 10
-1299.4109812477
 20
66.1490068485
 10
-1299.4764910634
 20
66.1610911834
 10
-1299.5464530025
 20
66.1680873773
 10
-1299.6215030826
 20
66.1706314478
  0
LWPOLYLINE
  5
117
330
1F
100
AcDbEntity
  8
0
  6
Continuous
 62
     7
100
AcDbPolyline
 90
       64
 70
   128
 43
0.0
 10
-1299.6025085449
 20
64.8273622171
 10
-1299.687648916
 20
64.8241821289
 10
-1299.7684231547
 20
64.8140058469
 10
-1299.8460173054
 20
64.7981054062
 10
-1299.9197953503
 20
64.7752087716
 10
-1299.990393307
 20
64.745315943
 10
-1300.0578111756
 20
64.7090629382
 10
-1300.1214129384
 20
64.6664497571
 10
-1300.1811985955
 20
64.6174763998
 10
-1300.2358961115
 20
64.564050919
 10
-1300.282961416
 20
64.5087173853
 10
-1300.3230305265
 20
64.4508397812
 10
-1300.3554674256
 20
64.3910541241
 10
-1300.3815441483
 20
64.3287243966
 10
-1300.3993526419
 20
64.2644866161
 10
-1300.4101649416
 20
64.1977047651
 10
-1300.4139810474
 20
64.1290148613
 10
-1300.4139810474
 20
64.1290148613
 10
-1300.4076208711
 20
64.0437884991
 10
-1300.3891763599
 20
63.9617422251
 10
-1300.3580114961
 20
63.8809679863
 10
-1300.3147622974
 20
63.8033738357
 10
-1300.2600647814
 20
63.730867826
 10
-1300.1951909833
 20
63.6679020809
 10
-1300.1207769208
 20
63.6125685472
 10
-1300.0361865762
 20
63.566775278
 10
-1299.9426919849
 20
63.5305222732
 10
-1299.8428372172
 20
63.505081568
 10
-1299.7353502381
 20
63.4891811273
 10
-1299.6215030826
 20
63.4840929863
 10
-1299.6215030826
 20
63.4840929863
 10
-1299.5324606147
 20
63.4872730744
 10
-1299.4485062878
 20
63.4968133389
 10
-1299.3690040842
 20
63.5127137796
 10
-1299.2945900217
 20
63.5349743966
 10
-1299.2246280826
 20
63.5629591722
 10
-1299.1591182669
 20
63.5979401417
 10
-1299.0980605746
 20
63.63864527
 10
-1299.0420910233
 20
63.6863465921
 10
-1298.9918456307
 20
63.73786402
 10
-1298.9479604144
 20
63.7919255184
 10
-1298.9104353743
 20
63.8478950696
 10
-1298.8805425458
 20
63.9057726738
 10
-1298.8570098935
 20
63.9655583309
 10
-1298.8398374176
 20
64.0278880584
 10
-1298.8296611355
 20
64.0921258389
 10
-1298.8264810474
 20
64.1589076898
 10
-1298.8264810474
 20
64.1589076898
 10
-1298.8302971531
 20
64.2237814879
 10
-1298.8404734352
 20
64.2861112155
 10
-1298.8582819288
 20
64.3471689078
 10
-1298.8830866163
 20
64.4063185472
 10
-1298.9155235153
 20
64.4635601337
 10
-1298.9543205906
 20
64.5188936674
 10
-1299.0007498775
 20
64.5723191482
 10
-1299.0541753583
 20
64.623836576
 10
-1299.1126889801
 20
64.6715378982
 10
-1299.1737466724
 20
64.712879044
 10
-1299.2379844528
 20
64.7478600135
 10
-1299.3054023214
 20
64.7764808068
 10
-1299.3753642605
 20
64.7987414238
 10
-1299.4485062878
 20
64.8146418645
 10
-1299.5241923855
 20
64.8241821289
 10
-1299.6030585714
 20
64.8273622171
  0
POINT
  5
118
330
1F
100
AcDbEntity
  8
0
  6
Continuous
 62
     7
100
AcDbPoint
 10
-961.7376433927
 20
62.6042163662
 30
0.0
  0
POINT
  5
119
330
1F
100
AcDbEntity
  8
0
  6
Continuous
 62
     7
100
AcDbPoint
 10
-961.7376433927
 20
62.6042163662
 30
0.0
  0
POINT
  5
11A
330
1F
100
AcDbEntity
  8
0
  6
Continuous
 62
     7
100
AcDbPoint
 10
-604.9828777933
 20
61.414820902
 30
0.0
  0
POINT
  5
11B
330
1F
100
AcDbEntity
  8
0
  6
Continuous
 62
     7
100
AcDbPoint
 10
-604.9828777933
 20
61.414820902
 30
0.0
  0
POINT
  5
11C
330
1F
100
AcDbEntity
  8
0
  6
Continuous
 62
     7
100
AcDbPoint
 10
-802.0037341448
 20
-336.5156727488
 30
0.0
  0
POINT
  5
11D
330
1F
100
AcDbEntity
  8
0
  6
Continuous
 62
     7
100
AcDbPoint
 10
-802.0037341448
 20
-336.5156727488
 30
0.0
  0
POINT
  5
11E
330
1F
100
AcDbEntity
  8
0
  6
Continuous
 62
     7
100
AcDbPoint
 10
-1319.8809256041
 20
-343.156048988
 30
0.0
  0
POINT
  5
11F
330
1F
100
AcDbEntity
  8
0
  6
Continuous
 62
     7
100
AcDbPoint
 10
-1319.8809256041
 20
-343.156048988
 30
0.0
  0
ENDSEC
  0
SECTION
  2
OBJECTS
  0
DICTIONARY
  5
C
330
0
100
AcDbDictionary
281
     1
  3
ACAD_GROUP
350
D
  3
ACAD_LAYOUT
350
1A
  3
ACAD_MLINESTYLE
350
17
  3
ACAD_PLOTSETTINGS
350
19
  3
ACAD_PLOTSTYLENAME
350
E
  3
ACAD_SCALELIST
350
47
  3
DWGPROPS
350
120
  0
DICTIONARY
  5
D
102
{ACAD_REACTORS
330
C
102
}
330
C
100
AcDbDictionary
281
     1
  0
DICTIONARY
  5
1A
102
{ACAD_REACTORS
330
C
102
}
330
C
100
AcDbDictionary
281
     1
  3
Layout1
350
1E
  3
Layout2
350
26
  3
Model
350
22
  0
DICTIONARY
  5
17
102
{ACAD_REACTORS
330
C
102
}
330
C
100
AcDbDictionary
281
     1
  3
Standard
350
18
  0
DICTIONARY
  5
19
102
{ACAD_REACTORS
330
C
102
}
330
C
100
AcDbDictionary
281
     1
  0
ACDBDICTIONARYWDFLT
  5
E
102
{ACAD_REACTORS
330
C
102
}
330
C
100
AcDbDictionary
281
     1
  3
Normal
350
F
100
AcDbDictionaryWithDefault
340
F
  0
DICTIONARY
  5
47
102
{ACAD_REACTORS
330
C
102
}
330
C
100
AcDbDictionary
281
     1
  3
A0
350
48
  3
A1
350
49
  3
A2
350
4A
  3
A3
350
4B
  3
A4
350
4C
  3
A5
350
4D
  3
A6
350
4E
  3
A7
350
4F
  3
A8
350
50
  3
A9
350
51
  3
B0
350
52
  3
B1
350
53
  3
B2
350
54
  3
B3
350
55
  3
B4
350
56
  3
B5
350
57
  3
B6
350
58
  0
XRECORD
  5
120
102
{ACAD_REACTORS
330
C
102
}
330
C
100
AcDbXrecord
280
     1
  1
DWGPROPS COOKIE
  2

  3

  4

  6

  7

  8
njohnson
  9

300
=
301
=
302
=
303
=
304
=
305
=
306
=
307
=
308
=
309
=
 40
0.0
 41
2460963.68045338
 42
2460963.680479688
  1

 90
        0
  0
LAYOUT
  5
1E
102
{ACAD_REACTORS
330
1A
102
}
330
1A
100
AcDbPlotSettings
  1

  2
none_device
  4

  6

 40
0.0
 41
0.0
 42
0.0
 43
0.0
 44
0.0
 45
0.0
 46
0.0
 47
0.0
 48
0.0
 49
0.0
140
0.0
141
0.0
142
1.0
143
1.0
 70
   688
 72
     1
 73
     0
 74
     5
  7

 75
    16
147
1.0
148
0.0
149
0.0
100
AcDbLayout
  1
Layout1
 70
     1
 71
     1
 10
0.0
 20
0.0
 11
420.0
 21
297.0
 12
0.0
 22
0.0
 32
0.0
 14
1.0000000000E+20
 24
1.0000000000E+20
 34
1.0000000000E+20
 15
-1.0000000000E+20
 25
-1.0000000000E+20
 35
-1.0000000000E+20
146
0.0
 13
0.0
 23
0.0
 33
0.0
 16
1.0
 26
0.0
 36
0.0
 17
0.0
 27
1.0
 37
0.0
 76
     0
330
1B
  0
LAYOUT
  5
26
102
{ACAD_REACTORS
330
1A
102
}
330
1A
100
AcDbPlotSettings
  1

  2
none_device
  4

  6

 40
0.0
 41
0.0
 42
0.0
 43
0.0
 44
0.0
 45
0.0
 46
0.0
 47
0.0
 48
0.0
 49
0.0
140
0.0
141
0.0
142
1.0
143
1.0
 70
   688
 72
     1
 73
     0
 74
     5
  7

 75
    16
147
1.0
148
0.0
149
0.0
100
AcDbLayout
  1
Layout2
 70
     1
 71
     2
 10
0.0
 20
0.0
 11
0.0
 21
0.0
 12
0.0
 22
0.0
 32
0.0
 14
0.0
 24
0.0
 34
0.0
 15
0.0
 25
0.0
 35
0.0
146
0.0
 13
0.0
 23
0.0
 33
0.0
 16
1.0
 26
0.0
 36
0.0
 17
0.0
 27
1.0
 37
0.0
 76
     0
330
23
  0
LAYOUT
  5
22
102
{ACAD_REACTORS
330
1A
102
}
330
1A
100
AcDbPlotSettings
  1

  2
none_device
  4
ANSI_A_(11.00_x_8.50_Inches)
  6

 40
6.35
 41
19.05
 42
6.35000508
 43
19.05000254
 44
279.4
 45
215.9
 46
382.3510368506
 47
133.5218848514
 48
0.0
 49
0.0
140
0.0
141
0.0
142
0.0097940634
143
1.0
 70
  1696
 72
     0
 73
     0
 74
     0
  7

 75
     0
147
0.0179189148
148
-1300.4909072572
149
0.0
100
AcDbLayout
  1
Model
 70
     1
 71
     0
 10
0.0
 20
0.0
 11
420.0
 21
297.0
 12
0.0
 22
0.0
 32
0.0
 14
-1556.8809256041
 24
-580.156048988
 34
0.0
 15
-444.9828777933
 25
221.414820902
 35
0.0
146
0.0
 13
0.0
 23
0.0
 33
0.0
 16
1.0
 26
0.0
 36
0.0
 17
0.0
 27
1.0
 37
0.0
 76
     0
330
1F
331
29
  0
MLINESTYLE
  5
18
102
{ACAD_REACTORS
330
17
102
}
330
17
100
AcDbMlineStyle
  2
Standard
 70
     0
  3

 62
   256
 51
90.0
 52
90.0
 71
     2
 49
0.5
 62
   256
  6
BYLAYER
 49
-0.5
 62
   256
  6
BYLAYER
  0
ACDBPLACEHOLDER
  5
F
102
{ACAD_REACTORS
330
E
102
}
330
E
  0
SCALE
  5
48
102
{ACAD_REACTORS
330
47
102
}
330
47
100
AcDbScale
 70
     0
300
1:1
140
1.0
141
1.0
290
     1
  0
SCALE
  5
49
102
{ACAD_REACTORS
330
47
102
}
330
47
100
AcDbScale
 70
     0
300
1:2
140
1.0
141
2.0
290
     0
  0
SCALE
  5
4A
102
{ACAD_REACTORS
330
47
102
}
330
47
100
AcDbScale
 70
     0
300
1:4
140
1.0
141
4.0
290
     0
  0
SCALE
  5
4B
102
{ACAD_REACTORS
330
47
102
}
330
47
100
AcDbScale
 70
     0
300
1:5
140
1.0
141
5.0
290
     0
  0
SCALE
  5
4C
102
{ACAD_REACTORS
330
47
102
}
330
47
100
AcDbScale
 70
     0
300
1:8
140
1.0
141
8.0
290
     0
  0
SCALE
  5
4D
102
{ACAD_REACTORS
330
47
102
}
330
47
100
AcDbScale
 70
     0
300
1:10
140
1.0
141
10.0
290
     0
  0
SCALE
  5
4E
102
{ACAD_REACTORS
330
47
102
}
330
47
100
AcDbScale
 70
     0
300
1:16
140
1.0
141
16.0
290
     0
  0
SCALE
  5
4F
102
{ACAD_REACTORS
330
47
102
}
330
47
100
AcDbScale
 70
     0
300
1:20
140
1.0
141
20.0
290
     0
  0
SCALE
  5
50
102
{ACAD_REACTORS
330
47
102
}
330
47
100
AcDbScale
 70
     0
300
1:30
140
1.0
141
30.0
290
     0
  0
SCALE
  5
51
102
{ACAD_REACTORS
330
47
102
}
330
47
100
AcDbScale
 70
     0
300
1:40
140
1.0
141
40.0
290
     0
  0
SCALE
  5
52
102
{ACAD_REACTORS
330
47
102
}
330
47
100
AcDbScale
 70
     0
300
1:50
140
1.0
141
50.0
290
     0
  0
SCALE
  5
53
102
{ACAD_REACTORS
330
47
102
}
330
47
100
AcDbScale
 70
     0
300
1:100
140
1.0
141
100.0
290
     0
  0
SCALE
  5
54
102
{ACAD_REACTORS
330
47
102
}
330
47
100
AcDbScale
 70
     0
300
2:1
140
2.0
141
1.0
290
     0
  0
SCALE
  5
55
102
{ACAD_REACTORS
330
47
102
}
330
47
100
AcDbScale
 70
     0
300
4:1
140
4.0
141
1.0
290
     0
  0
SCALE
  5
56
102
{ACAD_REACTORS
330
47
102
}
330
47
100
AcDbScale
 70
     0
300
8:1
140
8.0
141
1.0
290
     0
  0
SCALE
  5
57
102
{ACAD_REACTORS
330
47
102
}
330
47
100
AcDbScale
 70
     0
300
10:1
140
10.0
141
1.0
290
     0
  0
SCALE
  5
58
102
{ACAD_REACTORS
330
47
102
}
330
47
100
AcDbScale
 70
     0
300
100:1
140
100.0
141
1.0
290
     0
  0
ENDSEC
  0
EOF
